Cifra Club

Drunk On Halloween

Wallows

Cifrado: Principal (guitarra y guitarra eléctrica)
tono: F#
[Intro] 

E|-----------6-------------------------------6------6-|
B|-------7----9-7------------6---7--------| 9---9------|
G| 6---8------------8---6---8--------6----------------|
D|----------------------------------------------------|
A|----------------------------------------------------|
E|----------------------------------------------------|

( F#  G#m  C# )

[Primeira Parte]

F#               D#m
I know where you've been
G#m                     C#
Don't try to act like I don't know you
F#                          D#m
And all the words you don't hear
G#m                    C#
They always find a way back to you now

F#          D#m
   Say a new day has dawned
           G#m
But we no longer get to
     C#
Cause I know the truth
F#                   D#m
   The leaves are all gone
                G#m
So who's moving on?
           C#
I know the worst is to come

[Refrão]

[Solo Piano Refrão]

E|-----------6-------------------------------6-------6--|
B|-------7----9-7------------6---7--------9---9---------|
G| 6---8------------8---6---8--------6------------------|
D|------------------------------------------------------|
A|--------| ---------------------------------------------|
E|--------| ---------------------------------------------|

E|-9-6------9---6-----------9---6-----------6-----------|
B|-----9---7-------7---9---11------9---7-7---9--7-11--9-|
G|------------------------------------------------------|
D|------------------------------------------------------|
A|------------------------------------------------------|
E|------------------------------------------------------|

F#          D#m
On that Halloween you told me
G#m                 C#
You weren't drinkin

I believed you
F#          D#m
Now the only time I have's to
G#m             C#
Sit and wonder

If you're thinkin
F#
About the fun
D#m
You've had with someone else
G#m
I know the truth
   C#
Is wasted on you

( F#  G#m  C# )

[Segunda Parte]

F#                D#m
  I know what you wanted
G#m
Under the lies
    C#                  F#
You take 'em and find a way
               D#m
To run out the door now
G#m                      C#
Back to a time that you tried to forget

F#
Why's the music so loud
D#m
Take it to the lawn now
G#m                          C#
Did you think about me if I ever was to find out?
F#                        D#m
Can you ease the pain with drinkin' all night?
G#m                                C#
Guess you'll never know the answer if you never try

[Refrão]

F#          D#m
On that Halloween you told me
G#m                 C#
You weren't drinkin

I believed you
F#          D#m
Now the only time I have'€™s to
G#m           C#
Sit and wonder

If you're thinkin
F#
About the fun
D#m
You've had with someone else
G#m
I know the truth
   C#
Is wasted on you

F#
You had the choice
D#m
I thought we had it made
G#m
What's done is done
C#
What's left to day?

[Final]

F#
I know you better
D#m
I know you better now
G#m
I know you better
C#
I know you better now
F#
I know you better
D#m
I know you better now
Gm
I know you better
C#
I know you better now
Compositor não encontrado.
Colaboración y revisión:
  • Robson Victor
  • Clara Muniz
60 vistas
    • ½ Tono
    • A
    • Bb
    • B
    • C
    • Db
    • D
    • Eb
    • E
    • F
    • F#
    • G
    • Ab
  • Agregar a la lista

    0 comentarios

    Ver todos los comentarios

    ¿Lograste tocar?

    1 Tocaron 0 Aún no

    ¡Graba un video tocando Drunk On Halloween y envíanoslo!

    00:00 / 00:00
    Outros vídeos desta música
    Repetir Calidad Automático
    Outros vídeos desta música
    00:00 / 00:00
    Automático
    OK