Cifra Club

Deslizes

Wando

Tablatura: Principal (guitarra)
Tom: C
(intro) C G/B Am Am/G F Em Dm G

(riff 1) (efeito)

E|---------------------------------------------------------------|
B|--8---7-8-7---5-5------5---------------------------------------|
G|------------------------7----7---5-5--4--5-4-------------------|
D|--------------------------------------------------5-5>7--------|
A|---------------------------------------------------------------|
E|---------------------------------------------------------------|


E|---------------------------------------------------------------|
B|---------------5-6-7-7>8---------------------------------------|
G|-------4-5-7---------------------------------------------------|
D|--5-7----------------------------------------------------------|
A|---------------------------------------------------------------|
E|---------------------------------------------------------------|

(riff 2) (normal)

E|--8--7-8-7--5-5----5------------------------------------|
B|-----------------8----8--6-6--5-6-5----------------------|
G|-------------------------------------------5-5>7---------|
D|---------------------------------------------------------|
A|---------------------------------------------------------|
E|---------------------------------------------------------|


E|----------------5-6-7- 7>8-------------------------------|
B|--------5-6-8--------------------------------------------|
G|--5-7----------------------------------------------------|
D|---------------------------------------------------------|
A|---------------------------------------------------------|
E|---------------------------------------------------------|

       C
Não sei porque
          Em        Am Am/G
Insisto tanto em te querer
          Gm7        C7/9          F
Se você sempre faz de mim o que bem quer
         Dm     Dm7+    Dm7   Dm6
Se ao teu lado sei tão pouco de você
         F7           G7            C G7
É pelos outros que eu sei quem você é

           C             Em
Eu sei de tudo com quem andas
     Am  Am7
Aonde vais
         Gm7          C7/9
Mas eu desfaço o meu ciúme
       F
Mesmo assim
          Dm     Dm7+    Dm7   Dm6
Pois aprendi que o meu silêncio vale mais
          F            G              C  C7
E desse jeito eu vou trazer você pra mim

         F          G            Am
E como prêmio eu recebo o teu abraço
       F            G          Am
Subornando o meu desejo tão antigo
            F           G
E fecho os olhos para todos
          Am Am7
Os teus passos
      Dm         G7
Me enganando só assim somos amigos...

( C G/B Am Am/G F Em Dm G )

             C         Em            Am  Am7
Por quantas vezes me dá raiva de querer
     Gm7               C7/9            F
Em concordar com tudo o que você me faz
          Dm     Dm7+    Dm7   Dm6
Já fiz de tudo pra tentar te esquecer
        F             G               C G7
Falta coragem para dizer que nunca mais

            C             Em
Nós somos cúmplices, nós dois
        Am   Am7
Somos culpados
           Gm7                 C7/9
No mesmo instante em que teu corpo
         F
Toca o meu
          Dm     Dm7+    Dm7   Dm6
Já não existe nem o certo nem errado
    G7                         C  C7
Só o amor que por encanto aconteceu

        F             G              Am
E é só assim que eu perdôo os teus deslizes
     F              G       Am
E é assim o nosso jeito de viver
           F          G           Am
Em outros braços tu resolves tuas crises
           Dm
Em outras bocas
      G7
Não consigo te esquecer...

( C G/B Am Am/G F Em Dm G )
reproducciones 107
Acordes para:
    Composição: Michael Sullivan/Paulo Massadas Colaboración y revision:
    • João Belleza

    0 comentarios

    mostrar más comentarios

    ¿Conseguiste tocar?

    1 tocaron 0 aún no

    ¡Graba un vídeo tocando Deslizes y envianoslo!

    00:00 / 00:00
    outros vídeos desta música
    repetir qualidade Automático
    Outros vídeos desta música
    00:00 / 00:00
    Automático
    OK