Cifra Club

Evidencia

Wando

Tablatura: Principal (guitarra)
Tom: C
Intro: C  C5+  F  Dm  F/G
       C  C5+  F  C/E  Dm  F/G
       C  F/G


Primeira Parte:

           C                  G/B
Quando eu digo que deixei de te amar
         Am7    C7(9) C6 C
É porque eu te amo
           F
Quando eu digo que não quero
      A7
Mais você
   Dm
É porque eu te quero
          G7
Eu tenho medo de te dar meu
 G#º
Coração
         Am7
E confessar   que eu estou
         Am7/G
Em tuas mãos
         D7        C/E
Mas não posso imaginar
           D/F#
O que vai ser de mim
             G      F/A  G/B
Se eu te perder um dia


Segunda Parte:

         C
Eu me afasto e me defendo
    G/B
De você
     Am            C7(9) C6 C
Mas depois me entrego
      F
Faço tipo, falo coisas que
    A7
Eu não sou
     Dm
Mas depois eu nego
          G7
Mas a verdade é que sou
       G#º
Louco por você
         Am
E tenho medo de pensar
         Fm
Em te perder
       C                       F/G
Eu preciso aceitar que não dá mais
                C4     C    C4  C F/G
Pra separar as nossas vidas


Refrão:


C
E nessa loucura de dizer

Que não te quero
       E
Vou negando as aparências

Disfarçando as evidências
          F
Mas pra que viver fingindo
           Dm
Se eu não posso enganar
         G7
Meu coração
    Dm       G7
Eu sei que te amo

  C
Chega de mentiras

De negar o meu desejo
        E
Eu te quero mais que tudo

eu preciso do seu beijo
       F
Eu entrego a minha vida
       Dm
Pra você fazer o que quiser
    G7
De mim
     Dm          G7
Só quero ouvir você dizer
     C
Que sim
              C5+
Diz que é verdade que tem
    F   C/E
Saudade
    Dm         G7
Que ainda você pensa muito
    C
Em mim
              C5+
Diz que é verdade que tem
     F  C/E
Saudade
    Dm          G7
Que ainda você quer viver

Pra mim


Base do Solo:

Am  G#5+  C/G   D/F#   Fm  F/G


Solo:

1-

E|-12h13~-12~-8~-------------------------------------|
B|----------------10~--10/15b16/17~------------------|
G|---------------------------------------------------|
D|---------------------------------------------------|
A|---------------------------------------------------|
E|---------------------------------------------------|



2-

E|-12h13~-12~8~----15b17r15---15~--------------------|
B|---------------------------------------------------|
G|---------------------------------------------------|
D|---------------------------------------------------|
A|---------------------------------------------------|
E|---------------------------------------------------|



3-

E|-11p8------8p4-------4p1-----------------------|
B|------9--------6---------1---------------------|
G|--------8---------5--------1---3p1--0~---------|
D|-----------------------------------------------|
A|-----------------------------------------------|
E|-----------------------------------------------|



Repete a Segunda Parte:

         C
Eu me afasto e me defendo
    G/B
De você
     Am            C7(9) C6 C
Mas depois me entrego
      F
Faço tipo, falo coisas que
    A7
Eu não sou
     Dm
Mas depois eu nego
          G7
Mas a verdade é que sou
       G#º
Louco por você
         Am
E tenho medo de pensar
         Fm
Em te perder
       C                       F/G
Eu preciso aceitar que não dá mais
                C4     C    C4  C F/G
Pra separar as nossas vidas


Refrão Final:

C
E nessa loucura de dizer

Que não te quero
       E
Vou negando as aparências

Disfarçando as evidências
          F
Mas pra que viver fingindo
           Dm
Se eu não posso enganar
         G7
Meu coração
    Dm       G7
Eu sei que te amo

  C
Chega de mentiras

De negar o meu desejo
        E
Eu te quero mais que tudo

eu preciso do seu beijo
       F
Eu entrego a minha vida
       Dm
Pra você fazer o que quiser
    G7
De mim
     Dm          G7
Só quero ouvir você dizer
     C
Que sim
              C5+
Diz que é verdade que tem
    F   C/E
Saudade
    Dm         G7
Que ainda você pensa muito
    C
Em mim
              C5+
Diz que é verdade que tem
     F  C/E
Saudade
    Dm          G7
Que ainda você quer viver

Pra mim
             C5+
Diz que é verdade que tem
     F  C/E
Saudade
    Dm          G7
Que ainda você quer viver
     C
Pra mim
reproducciones 35
Acordes para:
    Composição: José Augusto Colaboración y revision:
    • clóvis silva

    0 comentarios

    mostrar más comentarios

    ¿Conseguiste tocar?

    0 tocaron 0 aún no

    ¡Graba un vídeo tocando Evidencia y envianoslo!

    00:00 / 00:00
    outros vídeos desta música
    repetir qualidade Automático
    Outros vídeos desta música
    00:00 / 00:00
    Automático
    OK