Cifra Club

Down Boys

Warrant

Tablatura: Principal (guitarra)
Tom: A
Song:Down Boys
Artist:Warrant
Written By:Warrant
Album:Dirty Rotten Filthy Stinking Rich,Rocking Tall,Best Of Warrant
Tuning:Half Step Down

Intro
Moderate Rock Q=114
N.C.                                                 D5      A/C#
5/4                                                       3/4
Gtr I
  PM------------------------------------------------|
|-7-7-7-12-12-12--7--7--7-12-|-12-12-7-7-7-12-12-12--7----|----------------|
|-----------9--9-------10-10-|-----------9--9-------10----|----------------|
|-9-9------------11-11-------|--9--9----------11-11-------|----------------|
|-----9--9-------------------|-------9-9---------------7-7|7---7-7--(7)----|
|----------------------------|-------------------------5-5|5-4-4-4--(4)-0-0|
|----------------------------|----------------------------|----------------|


  B5  A5                 E/Ab  A5  B5                A/C#
                    4/4
|------------------|-----------------------|------------------|
|------------------|-----------------------|------------------|
|-------2--(2)-----|-----------------------|------------------|
|-4---2-2--(2)-----|-----------------------|---------7--------|
|-2-0-0-0--(0)-0-0-|-7---7-7---7-7-9-9-9\--|---------4--------|
|------------------|-5-4-4-4-5-5-5-7-7-7\--|-0-0-0-0---0-0-0--|


  D5    A5                   A/C#      D5    A5 A/D5D#5
|------------------|-----------------|----------------|
|------------------|-----------------|----------------|
|------------------|-----------------|----------------|
|-7-----2----------|---------7-------|-7-----2--7-7-8-|
|-5-----0--2h4-2---|---------4-------|-5-----0--4-5-6-|
|---0-0----------3-|-0-0-0-0---0-0-0-|---0-0----------|


          A/C#      D5    A5                   A/C#
|-----------------|------------------|-----------------|
|-----------------|------------------|-----------------|
|-----------------|------------------|-----------------|
|---------7-------|-7-----2----------|---------7-------|
|---------4-------|-5-----0--2h4-2---|---------4-------|
|-0-0-0-0---0-0-0-|---0-0----------3-|-0-0-0-0---0-0-0-|


  D5    A5
 2/4       4/4
                  \0.5/   \0.5/     \4
|---------|----------------------------|----------------------------------||
|---------|----------------------------|----------------------------------||
|---------|-------------------------|-()-()-()----------------||
|-7-----2-|-(2)--(2)-----(2)--------|-()-()-()----------------||
|-5-----0-|-(0)--(0)-----(0)-----0-----|----------------------------------||
|---0-0---|----------------------------|-------------------7s=12----------||
|
| Gtr II
|                                                      \1
|
|---------|----------------------------|----------------------------------||
|---------|------------------------15--|-(15)---------15-----(15)-/17-----||
|---------|------------------------14--|-(14)---14----14-----(14)---------||
|-7-----2-|-(2)------------------------|--------------14-----(14)---------||
|-5-----0-|-(0)-----------0------0-----|------------------------------14\-||
|---0-0---|----------------------------|----------------------------------||


 1st Verse
  E5                        A5
    PM--|  ~~~ PM|    ~~~ PM
|------------------|-------------------|
|------------------|-------------------|
|------------------|-------------------|
|------------------|--------2----------|
|-2-------[4]------|-[5]----0--2h4-2---|
|-0-0-0-0------0-0-|------0----------3-|
|
| PM----|  ~~~ PM|    ~~~ PM
|
|------------------|-------------------|
|------------------|-------------------|
|------------------|-------------------|
|------------------|--------2----------|
|----------4-------|--5-----0--2h4-2---|
|-0-0-0-0------0-0-|------0----------3-|


  E5    B5        A7          C#5
                              ~       ~
|-------------------|--------------------|
|-------------------|--------------------|
|---------------4---|-------0---------6--|
|-----2-4-----4-----|-----2---------6----|
|---2---2---------0-|-(0)-----4----------|
|-0-----------------|--------------------|
|
| Gtr IV
|
|-------------------|--------------------|
|---------------7---|-(7)---5---(5)------|
|-----4---(4)-4-----|-----2-----------6--|
|---2---------------|---------------6----|
|-------------------|--------------------|
|-------------------|--------------------|


  N.C.(E5)              A5           E5    B5     A7          C#5
          ~        ~
|----------------|-----------------|----------------|---------------------|
|----------------|-----------------|----------------|---------------------|
|----------------|-----------------|------------4---|-------0-------------|
|----------------|------2----------|-----2----4-----|-----2------4h6-6\---|
|---------4------|-5----0--2h4-2---|---2---2------0-|-(0)-----4-----------|
|-0-0-0-0----0-0-|----0----------3-|-0--------------|---------------------|


  E5                      A5           E5    B5     A7          C#5
  PM----|  ~~~ PM|   ~  PM                                           ~
|------------------|-----------------|----------------|-----------------|
|------------------|-----------------|----------------|-----------------|
|------------------|-----------------|------------4---|-------0------6--|
|------------------|------2----------|-----2----4-----|-----2------6----|
|-2-------[4]------|-5----0--2h4-2---|---2---2------0-|-(0)-----4-------|
|-0-0-0-0------0-0-|----0----------3-|-0--------------|-----------------|


  E5                    A5           E5    B5     A7          C#5
  PM----| ~  PM|   ~  PM
|----------------|-----------------|----------------|-----------------||
|----------------|-----------------|----------------|-----------------||
|----------------|-----------------|------------4---|-------0---------||
|----------------|------2----------|-----2----4-----|-----2------6----||
|-2-2-----4------|-5----0--2h4-2---|---2---2------0-|-(0)-----4----4--||
|-0-0-0-0----0-0-|----0----------3-|-0--------------|-----------------||


 Pre Chorus
  G5                             Dsus4 D
|--3---------------------(3)---|----------------|
|--3---------------------(3)---|-8-8-8-7--------|
|--0---------------------(0)---|-7-7-7-7--7---0-|
|--5---------------------(5)---|------------7---|
|------------------------------|----------------|
|------------------------------|----------------|
|
| Gtr II
|        \1.5/    \1.5/
|
|------------------------------|----------------|
|------------------------------|-8-8-8-7--7-7---|
|---()----()----------|-7-7-7-7--7-7---|
|------------------------------|-7-7-7-7--7-7---|
|----------------------------5-|----------------|
|------------------------------|----------------|


  Csus4 C5                            D
                      \2.5/
|-----------------------------------|-------------------||
|-6-6-6-----------------------------|-7-----------------||
|-5-5-5--()---()---()---|-7-----------------||
|-----------------------------------|-7---7---7-7-7-(7)-||
|-----------------------------------|-----5---5-5-5-----||
|-----------------------------------|-------------------||
|
|
|-----------------------------------|-------------------||
|-----------------------------------|-7-7-7-------------||
|-5-5-5--5----5---5-----------5---5-|-7-7-7-------------||
|-5-5-5--5----5---5-----------5---5-|-7-7-7---7-7-7-----||
|-3-3-3--3----3---3-----------3---3-|-5-5-5-0-5-5-5-----||
|-----------------------------------|-------------------||


 Chorus
  $
  E5    B5       A5             E5    B5       A5   C#5D5D#E5
|--------------|--------------|--------------|----------------|
|--------------|--------------|--------------|----------------|
|-------4--4---|-2--2-2--2-2--|-------4--4---|-2--------------|
|-2--2--4--4-0-|-2--2-2--2-2--|-2--2--4--4-0-|-2----6--7-8-9--|
|-2--2--2--2-0-|-0--0-0--0-0--|-2--2--2--2-0-|-0--0-4--5-6-7--|
|-0--0---------|--------------|-0--0---------|----------------|


                                                              To Coda
  E5      B5       A5   C#5                 F#5      B5   A5
|----------------|-----------------|---------------|-------------------||
|----------------|-----------------|---------------|-------------------||
|-9--9----4--4---|-2---------------|---------------|-4----2-(2)--------||
|-9--9----4--4-0-|-2--2-6-(6)--6---|-6--6----------|-4--2-2-(2)--------||
|-7--7----2--2-0-|-0--0-4-(4)--4---|-4--4-0-4--4-0-|-2--0-0-(0)-0-7\---||
|----------------|-----------------|------0-2--2---|-------------------||


 2nd Verse
          A/C#      D5    A5                   A/C#      D5    A5 C#D5D#5
|-----------------|------------------|-----------------|----------------|
|-----------------|------------------|-----------------|----------------|
|-----------------|------------------|-----------------|----------------|
|---------7-------|-7-----2----------|---------7-------|-7-----2--6-7-8-|
|---------4-------|-5-----0--2h4-2---|---------4-------|-5-----0--4-5-6-|
|-0-0-0-0---0-0-0-|---0-0----------3-|-0-0-0-0---0-0-0-|---0-0----------|


          A/C#      D5    A5                   A/C#      D5
|-----------------|------------------|-----------------|------------------||
|-----------------|------------------|-----------------|------------------||
|-----------------|------------------|-----------------|------------------||
|---------7-------|-7-----2----------|---------7-------|-7-----2----------||
|---------4-------|-5-----0--2h4-2---|---------4-------|-5-----0--2h4-2---||
|-0-0-0-0---0-0-0-|---0-0----------3-|-0-0-0-0---0-0-0-|---0-0----------3-||


 Pre Chorus
  G5                  Dsus4           D
                 PM---|
|-3----(3)--(3)-----|---------------------------------------|
|-3----(3)--(3)-----|-------8---------7---------------------|
|-0----(0)--(0)-----|-------7---------7-------------7-----5-|
|-0----(0)--(0)-----|---7---7---------7---------7---7-----5-|
|----------------5--|---5-----------------------5---5-------|
|-3----(3)--(3)-----|---------------------------------------|
|
| Gtr II
|                               \1.5/     \1.5/     \1.5/
|
|-3----(3)--(3)-----|---------------------------------------|
|-3----(3)--(3)-----|---------------------------------------|
|-0----(0)--(0)--|-()---()-----()-----()-----|
|-5----(5)--(5)-----|---------------------------------------|
|-------------------|---------------------------------------|
|-------------------|---------------------------------------|


  Csus4 C            D5     E5D5
                                PM
|------------------|------------------||
|-6-6---5----------|------------------||
|-5-5-5-5----------|------------------||
|-5-5-5-5----------|--------9s7---7---||
|------------------|--------7s5-0-5---||
|------------------|------------------||
|
|
|------------------|------------------||
|-6----------------|------------------||
|-5-----5--5-------|------------------||
|-5---5-5--5-------|-7--7---------7---||
|-3---3----3--3s5--|-5--5---------5---||
|------------------|------------------||


 Chorus
  E5    B5       A5             E5    B5       A5   C#5D5D#E5
|--------------|--------------|--------------|----------------|
|--------------|--------------|--------------|----------------|
|-------4--4---|-2--2-2--2-2--|-------4--4---|-2--------------|
|-2--2--4--4-0-|-2--2-2--2-2--|-2--2--4--4-0-|-2----6--7-8-9--|
|-2--2--2--2-0-|-0--0-0--0-0--|-2--2--2--2-0-|-0--0-4--5-6-7--|
|-0--0---------|--------------|-0--0---------|----------------|


  E5      B5       A5   C#5                 F#5      B5 A5         D5
|----------------|-----------------|---------------|-------------------||
|----------------|-----------------|---------------|-------------------||
|-9--9----4--4---|-2---------------|---------------|-4----2-(2)--------||
|-9--9----4--4-0-|-2--2-6-(6)--6---|-6--6----------|-4--2-2-(2)------7-||
|-7--7----2--2-0-|-0--0-4-(4)--4---|-4--4-0-4--4-0-|-2--0-0-(0)--0-5-5-||
|----------------|-----------------|------0-2--2---|-------------------||


 Solo
  D5  A/C#       B5  A5
                                                       ~~~~~
|------------------------|---------------------19b22-(19)--|
|------------------------|---------------------------------|
|------------------------|---------------------------------|
|-7---7-7--(7)---4-4-2---|---------------------------------|
|-5-4-4-4--(4)-2-2-2-0---|---------------------------------|
|------------------------|---------------------------------|
|
| Gtr II
|
|------------------------|---------------------------------|
|------------------------|---------------------------------|
|------------------------|---------------------------------|
|-7---7-7--(7)---4-4---2-|-2-------------------------------|
|---4-4-4--(4)-2-2-2-0-0-|-0-----0-0-0--0--0-0---------0---|
|------------------------|---------------------------------|
|
| Gtr III
|                          \2.5________________________/1___
|
|------------------------|---------------------------------|
|------------------------|---------------------------------|
|------------------------|---------------------------------|
|------------------------|---------------------------------|
|------------------------|-0-----------(0)------------(0)--|
|------------------------|---------------------------------|


 ~~~~~~~~~
                      |--3--|  |--3---|
|-(19)----19--18--17-15-----------------|
|-----------------------17-16-15--------|
|---------------------------------16-14-|
|---------------------------------------|
|---------------------------------------|
|---------------------------------------|
|
|   \3.5
|
|---------------------------------------|
|---------------------------------------|
|------------------------------------|
|---------------------------------------|
|---------------------------------------|
|---------------------------------------|
|
|   \2.5___/
|
|---------------------------------------|
|---------------------------------------|
|---------------------------------------|
|---------------------------------------|
|--(0)----(0)-(0)--------------9\-------|
|---------------------------------------|


                              C#5               
              ~~~~~~              ~~~
                                                
|----------------------------------------------|
|----------------------------------------15b17-|
|-[14]b15==([14])---(14)r-----12---------------|
|--------------------------------14------------|
|----------------------------------------------|
|----------------------------------------------|
|
|
|----------------------------------------------|
|----------------------------------------------|
|----------------------------------------------|
|------------------------------6---------------|
|------------------------------4---------------|
|-------------0---0---0---0----------0-0--0----|

  D5         A5

        |--3--|             |--3--|
|---------------14b16-(14)-12-------15b18---(15)\-------|
|-(15)-12---------------------15-12-----------------x---|
|---------14-12-----------------------------------x-----|
|-------------------------------------------------x---x-|
|-------------------------------------------------------|
|-------------------------------------------------------|
|
|
|-------------------------------------------------------|
|-------------------------------------------------------|
|-------------------------------------------------------|
|---7-----------------------2---------------------------|
|---5-----------------------0-------------2h==4---2-----|
|-------0---------------0-----------------------------3-|

                     A/C#
|-17b19-(17)---17b19-(17)---15-17-15b16-(15)-----|
|--------------------------------------------17--|
|------------------------------------------------|
|------------------------------------------------|
|------------------------------------------------|
|------------------------------------------------|
|
|
|------------------------------------------------|
|------------------------------------------------|
|------------------------------------------------|
|----------------------------7-------------------|
|----------------------------4-------------------|
|---------0--0--0------0--------0---------0---0--|


  D5               C#D5D#5                       A/C#
                ~~~~                       ~~~~~
|------------------------|-19b22==(19)---(19)r-----15--------------|
|----17-16-15-(15)-------|----------------------------17----(17)---|
|-16---------------------|-----------------------------------------|
|------------------------|-----------------------------------------|
|------------------------|-----------------------------------------|
|------------------------|-----------------------------------------|
|
|
|------------------------|-----------------------------------------|
|------------------------|-----------------------------------------|
|------------------------|-----------------------------------------|
|--7--------2------6-7-8-|--------------------------7--------------|
|--5--------0------4-5-6-|--------------------------4--------------|
|-----0--0---------------|----------0--0---0---0----------0---0--0-|


  D5                        A5
        \0.5/
                                            ~~~~~~~~~~~~
                    |--3--|
|------15-----(15)p12h15p12-----------------------------x-x-|
|-(17)----------------------15p12h15p12-----------------x---|
|---------------------------------------14-12------(12)-----|
|-----------------------------------------------------------|
|-----------------------------------------------------------|
|-----------------------------------------------------------|
|
|
|-----------------------------------------------------------|
|-----------------------------------------------------------|
|-----------------------------------------------------------|
|---7------------------------2------------------------------|
|---5------------------------0-----------------2h4---2------|
|---------------0---0-----------------------------------3---|


|-15s17-17-17-17s15-15-15-15s12-12-12------------|
|-15s17-------17s15-------15s12-12-12-14---------|
|-------------------------------------14-12\-----|
|------------------------------------------------|
|------------------------------------------------|
|------------------------------------------------|
|
|
|------------------------------------------------|
|------------------------------------------------|
|------------------------------------------------|
|--------------------------7---------------------|
|--------------------------4---------------------|
|--0-----0-----0-----0-----------0-----0-----0---|


     \3.5____/2______________/
|---24-----(24)--(24)-(24)-(24)------------------||
|---------------------------------19--21-(21)-22-||
|-x----------------------------------------------||
|------------------------------------------------||
|------------------------------------------------||
|------------------------------------------------||
|
|
|------------------------------------------------||
|------------------------------------------------||
|------------------------------------------------||
|-7--------------------------------6---7--(7)--8-||
|-5--------------------------------4---5--(5)--6-||
|------------------------------------------------||


 3rd Verse
  Gtr III
|-22b24==(22)--------|-(22)r---------|----------|------|
|--------------------|---------------|----------|------|
|--------------------|---------------|----------|------|
|--------------------|---------------|----------|------|
|--------------------|---------------|----------|------|
|--------------------|---------------|----------|------|


                        A5           E5
|----------------|-----------------|----------------|---------------------||
|----------------|-----------------|----------------|---------------------||
|----------------|-----------------|------------4---|-------0--------6-0--||
|----------------|------2----------|-----2----4-----|-----2------4h6------||
|---------4------|-5----0--2h4-2---|---2---2------0-|-(0)-----4-----------||
|-0-0-0-0----0-0-|----0----------3-|-0--------------|---------------------||


 Pre Chorus
  G5               D5        C5
|-3----3-------|---------------|----------------|
|-3-------3----|-8-------------|-6-6------------|
|-0--0----0--0-|-7-7--7--------|-5-5---5--------|
|--------------|-7-7-----7-7-5-|-5---5----5-----|
|--------------|---5-----5-5-3-|-------3----3s5-|
|--------------|---------------|----------------|


                     D.S. al Coda
  D5
    PM|   PM|   PM--|   PM|
|-----------------|-----------------||
|-----------------|-----------------||
|-----------------|-----------------||
|-7-----7-----7---|---7-----7--7----||
|-5-----5-----5---|---5-----5--5----||
|---0-0---0-0---0-|-0---0-0---------||


 Outro
 
  N.C.                    A5          E5                     A5    C#5D5D#5
  Gtr I
          ~         ~                         ~        ~~~
|-----------------|------------------|---------------|--------------------|
|-----------------|------------------|---------------|7------7-(7)--------|
|-----------------|------------------|---------------|-------7------------|
|-----------------|------------------|--------7------|7-------------------|
|---------4-------|-5----------------|---------------|--------------------|
|-----------------|------------------|---------------|--------------------|
|
|
| Gtrs II, III
| PM--------------------|             PM-------------------|
|
|-----------------|------------------|---------------|--------------------|
|-----------------|------------------|---------------|--------------------|
|-----------------|------------------|---------------|--------------------|
|-----------------|-------2----------|---------------|-------2-----6--7-8-|
|---------4-------|-5-----0---2h4-2--|2-------4------|5------0-----4--5-6-|
|-0-0-0-0---0-0-0-|---0-0-----------3|0-0-0-0---0-0-0|---0-0--------------|


  N.C.                     A5
          ~          ~~
|-----------------|----------------------|
|-----------------|----------------------|
|---------7-------|--9-----11\-----------|
|---------9-------|-11-----12\-----------|
|-----------------|----------------------|
|-----------------|----------------------|
|
|
|-----------------|----------------------|
|-----------------|----------------------|
|-----------------|----------------------|
|-----------------|---------2------------|
|---------4-------|--5------0----2h4-2---|
|-0-0-0-0---0-0-0-|----0-0-------------3-|


  E5                            D5          C#5   D5        D#5
|-----------------------------|-----------------------------------|
|-----------------------------|-14h15b17r===(15)------------------|
|---------16b18==(16)r(16)-14-|----14----16--18---14--16\---------|
|-----------------------------|-----------------------------------|
|-----------------------------|-----------------------------------|
|-----------------------------|-----------------------------------|
|
|
|
|-----------------------------|-----------------------------------|
|-----------------------------|-----------------------------------|
|-----------------------------|-----------------------------------|
|-----------------------------|-----7--------------6------7-(7)-8-|
|-2--------4------------------|-----5--------------4------5-(5)-6-|
|-0-0-0-0----------0----0---0-|-----------------------------------|


  D#5            N.C.
 2/4            5/4
  PM-------------------------------------------------------------------|
|----7----7--7-|----------------------------|-----------------------------*|
|-9--9---------|-----------9--9-------10-10-|------------9--9-------10-10-*|
|--------11-11-|-9-9------------11-11-------|-9-9-------------11-11-------*|
|--------------|-----9--9-------------------|------9--9-------------------*|
|--------------|----------------------------|-----------------------------*|
|--------------|----------------------------|-----------------------------*|
|
|                PM----------------------------------------------------|
|
|--------------|-------12-12-12-------------|-----12-12-12----------------*|
|--------------|----------------12-12-12----|--------------12-12-12-------*|
|--------------|-9-9-9--------------------9-|-9-9--------------------9--9-*|
|-8-(8)\-------|----------------------------|-----------------------------*|
|-6-(6)\-------|----------------------------|-----------------------------*|
|--------------|----------------------------|-----------------------------*|
reproducciones 61
Acordes para:
    Composição: Jani Lane Colaboración y revision:
    • Danilo Silva

    0 comentarios

    mostrar más comentarios

    ¿Conseguiste tocar?

    0 tocaron 0 aún no

    ¡Graba un vídeo tocando Down Boys y envianoslo!

    00:00 / 00:00
    outros vídeos desta música
    repetir qualidade Automático
    Outros vídeos desta música
    00:00 / 00:00
    Automático
    OK