Cifra Club

I Saw Red

Warrant

Tablatura: Principal (guitarra)
Tom: G
Song:I Saw Red
Artist:Warrant
Written By:Jani Lane
Album:Cherry Pie
Tuning:Standard

Intro
Rock Ballad Q=84
  C5                      Em9
4/4
Gtr I
|-------------3-2---3---|-------------3-2---3---|
|-----------3-----3---3-|-----------3-----3---3-|
|-----0-(0)-------------|-----0-(0)-------------|
|---0-------------------|---2-------------------|
|-3---------------------|-----------------------|
|-----------------------|-0---------------------|


  D                            Cadd9
|-2---------3p2------2h3p2---|-----------3---3----||
|---3-----------3----------3-|-------------3-3----||
|-----2-(2)-------2----------|---0-----------0----||
|-0--------------------------|-----0-(0)-----0----||
|----------------------------|-3-------------3----||
|----------------------------|--------------------||


   1st & 2nd Verses
                                Cadd9
    Gtr IV
    |  |  |  |    |  |  |  |    |  |  |  |
    /  /  /  /    /  /  /  /    /  /  /  /

||--------------|-------------|-------------|
||o-------------|-------------|-------------|
||--------------|-------------|-------------|
||--------------|-------------|-------------|
||o-------------|-------------|-------------|
||--------------|-------------|-------------|


                              Cadd9
  |  |  |  |    |  |  |  |    |  |  |  |
  /  /  /  /    /  /  /  /    /  /  /  /

|-------------|-------------|-------------|
|-------------|-------------|-------------|
|-------------|-------------|-------------|
|-------------|-------------|-------------|
|-------------|-------------|-------------|
|-------------|-------------|-------------|


  Em7         A          Cadd9     C
  |  |  | | | |  | | |   |  |  | | | |  | |
  /  /  / / / /  / / /   /  /  / / / /  / /

|----------------------|--------------------|
|----------------------|--------------------|
|----------------------|--------------------|
|----------------------|--------------------|
|----------------------|--------------------|
|----------------------|--------------------|


  Em7         A          Cadd9     C
  |  |  | | | |  | | |   |  |  | | | |   |  |
  /  /  / / / /  / / /   /  /  / / / /   /  /

                         Gtrs II, III
|----------------------|----------------------||
|----------------------|----------------------||
|----------------------|----------------------||
|----------------------|----------------------||
|----------------------|----------------10\---||
|----------------------|----------------10\---||


 Chorus
  $
  E5                         Cadd9           E5
                                            2/4     4/4
  Gtrs II, III
  |  |  |             |      |               |  |    |
  /  /  /             /      /               /  /    /

  Gtr I
|-0--3--2--(2)-2---|------2----------------|-0--3--|-2--(2)-2--------2---|
|-0--3--3--(3)-3-3-|-(3)--3----3-------3---|-0--3--|-3--(3)-3-3-(3)--3---|
|-0--0--2--(2)-2-2-|-(2)--2--0---0-(0)---0-|-0--0--|-2--(2)-2-2-(2)--2---|
|-2--0--0--(0)-0-0-|-(0)--0--2-------------|-2--0--|-0--(0)-0-0-(0)--0---|
|-2--2-------------|---------3-------------|-2--2--|---------------------|
|-0--3-------------|-----------------------|-0--3--|---------------------|


  Cadd9         E5       A5              C5    E5
  |             |  |     |               |  |  |
  /             /  /     /               /  /  /

|----------------------|------------0--|---------------|
|---3-------3--------3-|------0--2-----|-3--1--0--0-3--|
|-0---0-(0)---0-0--0---|-2--2-2--2-----|-0--0--0-------|
|-2-------------2------|-2--2----------|-2--2--2-------|
|-3-------------2------|-0--0----------|-3--3--2-------|
|---------------0------|---------------|-------0-------|


         To Coda
  A5                                      Cadd9    D
  |                  |
  /                  /

|-----------------|----------------3----|----------2--2-2-2-|
|-2--3p2---2--2-3-|--3---3-(3)---3-3----|-3--3-3-3-3--3-3-3-|
|-2--2---4-2--2---|--0-0-------0---0----|-0--0-0-0-2--2-2-2-|
|-2--2--------2---|--2------------------|-2--2-2-2-0--0-0-0-|
|-0--0--------0---|--3------------------|-3--3-3-3----------|
|-----------------|---------------------|-------------------|


                          Cadd9 D          C5
                                          |
                                          /

|-3--3-(3)-3-3-3--3-3-3-|-3--3-2-2--2-2-|-0-----------3-2---3---|
|-3--3-(3)-3-3-3--3-3-3-|-3--3-3-3--3-3-|-3-3-------3-----3---3-|
|-0--0-(0)-0-0-0--0-0-0-|-0--0-2-2--2-2-|-0---0-(0)-------------|
|-0--0-(0)-0-0-0--0-0-0-|-2--2-0-0--0-0-|-2---------------------|
|-2--2-(2)-2-2-2--2-2-2-|-3--3----------|-3---------------------|
|-3--3-(3)-3-3-3--3-3-3-|---------------|-----------------------|


                                                   1.
  E5                                                C5
  |                       |                         |               |
  /                       /                         /               o

|-0-----------3-2---3---|-2--(2)-3p2------2h3p2---|-0------------3------||
|-0-3-------3-----3---3-|-3--(3)-----3----------3-|-3--3-------3-------o||
|-0---0-(0)-------------|-2--(2)-------2----------|-0----0-(0)----------||
|-2---------------------|-0--(0)------------------|-2-------------------||
|-2---------------------|-------------------------|-3------------------o||
|-0---------------------|-------------------------|---------------------||


  2.
  C5
  |                                     |
  /                                     o

|-0-------------------------3----------------------||
|-3------3------------3----------------------------||
|-0---------0-(0)----------------------------------||
|-2------------------------------------------------||
|-3------------------------------------------------||
|--------------------------------------------------||
|
| Gtr III
|     PM----------------------------|
|
|--------------------------------------12-14-14-15-||
|-----------------------------------12-------------||
|-----------------------12p11----12----------------||
|--------------------12-------14-------------------||
|-x--------10-12--14-------------------------------||
|----10-12-----------------------------------------||


 Bridge
     C5                    E5
  Gtr II
|----------------------------|
|----------------------------|
|----5-5-5-5---5-5-5-5---7s9-|
|----5-5-5-5---5-5-5-5---7s9-|
|----3-3-3-3---3-3-3-3---5s7-|
|----------------------------|
|
|
|----------------------------|
|-13-------------------------|
|----------------------------|
|----------------------------|
|----------------------------|
|----------------------------|


                             D5                            C5
|------------------------------|-----------------------------|
|------------------------------|-----------------------------|
|-(9)\---------------------9s7-|-(7)-7-7-7-7---7-7-7-7---7s5-|
|-(9)\-2-2-2-2---2-2-2-2---9s7-|-(7)-7-7-7-7---7-7-7-7---7s5-|
|-(7)\-2-2-2-2---2-2-2-2---7s5-|-(5)-5-5-5-5---5-5-5-5---5s3-|
|------0-0-0-0---0-0-0-0-------|-----------------------------|


|---------------------------------||
|---------------------------------||
|-(5)-5-5-5-5---------------------||
|-(5)-5-5-5-5-----------------5---||
|-(3)-3-3-3-3---3-5-3-2-3-2-------||
|---------------------------3-----||


      C5                                                   E5
|------------------------------------------------------------|
|------------------------------------------------------------|
|-----5-5----------5--5-----5--5---5-----5---------------7s9-|
|-(5)-5-5----------5--5-----5--5---5-----5---------------7s9-|
|-----3-3----------3--3-----3--3---3-----3---------------5s7-|
|------------------------------------------------------------|
|
| Gtr III
|                                                     ~~~~
|                                  |---3----|
|
|------------------------------------------------------------|
|------------------------------------------------------------|
|---------14b16==(14)-----(14)r==(14)-12------14b16-(14)-----|
|------------------------------------------14----------------|
|------------------------------------------------------------|
|------------------------------------------------------------|


                                                                     D5
|----------------------------------------------------------------------|
|----------------------------------------------------------------------|
|-(9)\-----------------------------------------------------------9---7-|
|-(9)\-----2----2--2-2-------------2--2-2---2--------------------9---7-|
|-(7)\-----2----2--2-2-------------2--2-2---2--------------------7---5-|
|----------0----0--0-0-------------0--0-0---0--------------------------|
|
|                                           \0.5/   \0.5____/
|  |----3-----|    |-----3------|
|
|------------12---14---14b15---14--------------------------------------|
|------/12------------------------15-----------------------------------|
|------------------------------------14---(14)----(14)----(14)-(14)\---|
|----------------------------------------------------------------------|
|----------------------------------------------------------------------|
|----------------------------------------------------------------------|


                                                            
|----------------------------------------------------------|
|----------------------------------------------------------|
|-(7)----7--7--------7-----7-----------------7-----------7-|
|-(7)----7--7--------7-----7-----------------7-----------7-|
|-(5)----5--5--------5-----5-----------------5-----------5-|
|----------------------------------------------------------|
|
|           |--3--|                             |--3--|
|
|-----14h==15p14p12-14-15-17p15p14----14-15-17p15p14----14-|
|----------------------------------17----------------17----|
|----------------------------------------------------------|
|----------------------------------------------------------|
|----------------------------------------------------------|
|----------------------------------------------------------|

                             C5
|----------------------------------------|
|----------------------------------------|
|----7-----7--------------7s====5--------|
|----7-----7--------------7s====5--------|
|----5-----5--------------5s====3--------|
|----------------------------------------|
|
|
|
|15-17p15p14----14-15-17p15p13s12-15p12--|
|------------17--------------------------|
|----------------------------------------|
|----------------------------------------|
|----------------------------------------|
|----------------------------------------|

|----------------------------------------------------------|
|----------------------------------------------------------|
|-(5)-----------5-------5--------5-----5-------------------|
|-(5)-----------5-------5--------5-----5-------------------|
|-(3)-----------3-------3--------3-----3-------------------|
|----------------------------------------------------------|
|
|                                                           
|               |------5------|              |-----5-----|
|
|-----12-15p12----12p10---12p10----------------------------|
|-15-----------15---------------12h13p12p10-12h13h15p13p12-|
|----------------------------------------------------------|
|----------------------------------------------------------|
|----------------------------------------------------------|
|----------------------------------------------------------|

                 D.S. al Coda
|----------------------------------||
|----------------------------------||
|----------------------------------||
|----------------------------------||
|-3-----5-----3-----2-----3--------||
|-------------------------------3\-||
|
|                               ~~~
|
|----------------------------------||
|----------------------------------||
|14p11h12p11----11h12h14p12p11-----||
|------------14----------------12--||
|----------------------------------||
|----------------------------------||

 Outro
  &
  Cadd9                              D
  Gtr I
|----------------3-------|-----------2---2-3p=2--|
|-3---3-(3)---3--3-------|-3---3-3-3-3---3-3-(3)-|
|-0-0-------0----0-------|-0---0-0-0-2---2-2-(2)-|
|-2----------------------|-2---2-2-2-0---0-0-(0)-|
|-3----------------------|-3---3-3-3-------------|
|------------------------|-----------------------|
|
|
|-------------3-----(3)--|-------3---------2-----|
|-----------3------------|-----3---------3-------|
|-----0-(0)--------------|---0---------2---------|
|---2--------------------|-----------0-----------|
|-3----------------------|-3---------------------|
|------------------------|-----------------------|


  G5                      Em7/C     D
|-3--3-(3)-3-3-3--3-3-3-|-3------3--2-2---2-2---|
|-3--3-(3)-3-3-3--3-3-3-|-3------3--3-3---3-3---|
|-0--0-(0)-0-0-0--0-0-0-|-0------0--2-2---2-2---|
|-0--0-(0)-0-0-0--0-0-0-|-2------2--0-0---0-0---|
|-----------------------|-3------3--------------|
|-3--3-(3)-3-3-3--3-3-3-|-----------------------|
|
|
|-3---------------------|-----------3-----2-----|
|-3---------------------|-----3-(3)---------3---|
|-0---------------------|---0-----------2-------|
|-0---------------------|-------------0---------|
|-----------------------|-3---------------------|
|-3---------------------|-----------------------|


  C5                      E5
  Gtr II
  W                       W
  |                       |
  /                       /

|-0-----------3-2---3---|-0-----------3-2---3---|
|-3-3-------3-----3---3-|-0-3-------3-----3---3-|
|-0---0-(0)-------------|-0---0-(0)-------------|
|-2---------------------|-2---------------------|
|-3---------------------|-2---------------------|
|-----------------------|-0---------------------|


  D5                        C5
                                              6/4
  W                         W                  +W.
  |                         |                   |
  /                         /                   /

|-2--(2)-3p2------2h3p2---|-0-----------3----|-(3)----*|
|-3--(3)-----3----------3-|-3-3-------3------|--------*|
|-2--(2)-------2----------|-0---0-(0)--------|--------*|
|-0--(0)------------------|-2----------------|--------*|
|-------------------------|-3----------------|--------*|
|-------------------------|------------------|--------*|
reproducciones 586
Acordes para:
    Composição: Jani Lane Colaboración y revision:
    • Danilo Silva

    0 comentarios

    mostrar más comentarios

    ¿Conseguiste tocar?

    0 tocaron 0 aún no

    ¡Graba un vídeo tocando I Saw Red y envianoslo!

    00:00 / 00:00
    outros vídeos desta música
    repetir qualidade Automático
    Outros vídeos desta música
    00:00 / 00:00
    Automático
    OK