Cifra Club

Stronger Now

Warrant

Tablatura: Principal (guitarra)
Tom: A
Intro:
F#m E  D         A
-2--0----0---2--------------------------
-2--0----------3---0---2---3---0--2-----
-2--1------2-------------2----------2---
-4--2--0-------------2------------------
-4--2------------0----------------------
-2--0-----------------------------------

2--0-----0---2-----------------------
2--0-----------3---0---2-------------
2--1-------2-------------2---0---1---
4--2---0-------------2-------------2-
4--2-------------0-------------2-----
2--0-----------------------0---------

-----------0
-----------0
---0---1---1
---------2-2
-3---2-----2
-----------0

F#m E  D          A
-2--0----0---2----------------------------
-2--0----------3---0---2------------------
-2--1------2-------------2----------------
-4--2--0-------------2--------------------
-4--2------------0------------------------
-2--0-------------------------------------

E           A          E
---0---0------0---------------------------
---------0--------------------------------
------------2----2--2--1------------------
-----------------------2------------------
-----------------------2------------------
-0---0-----------------0------------------


Intro: ( F#m  E  D  A )(2x)
       ( A4   A  E  E4  E )

A A4  A                      F#m
I held you for a moment in my hands
                     F#m     A         D - D4 - D
The moment with you slipped away like sand
E    E4   E      A - A4 - A
Through my fingers now
A A4  A                      F#m
In front of me a choice I have to make
               F#m     A   D - D4 - D
To carry on or simply fade away
E    E4  E      F#m
I lose you either way
            C#                           D
I'd like to say that it was easy, it was hard
                   A                    F#m   D
To say goodbye, I thought that I would die

Refrão:
F#m   A   D        A      F#m   A  D        A  E
Letting go of you, was so hard to do
           D                 A            E
And I thought that it would kill me but I made
            F#m             D  A     E            A  A4  A
It through somehow, and I'm so much stronger now

A A4  A                      F#m
I gave to you my love and my respect
                  F#m       A      D - D4 - D
But I could never make you love me back
E E4  E     A  A4  A
I denied it so
A A4  A                      F#m
I grew bitter watching you grow cold
                    F#m     A         D - D4 - D
My life became your prison, took it's toll
E|- E4 - E
I decided
F#m                   C#
Like a bird that's trapped

Inside a gilded cage
D
It's right to set it free, 
                A
Hurts to watch it
    F#m  D
Fly away

Refrão:
F#m   A   D        A      F#m   A  D        A  E
Letting go of you, was so hard to do
           D                 A            E
And I thought that it would kill me but I made
            F#m             D  A     E            A  A4  A
It through somehow, and I'm so much stronger now
reproducciones 14
Acordes para:
    Composição: Jani Lane Colaboración y revision:
    • Eduardo Ew

    0 comentarios

    mostrar más comentarios

    ¿Conseguiste tocar?

    0 tocaron 0 aún no

    ¡Graba un vídeo tocando Stronger Now y envianoslo!

    00:00 / 00:00
    outros vídeos desta música
    repetir qualidade Automático
    Outros vídeos desta música
    00:00 / 00:00
    Automático
    OK