Cifra Club

95 Nasty

W.A.S.P.

Tablatura: Principal (guitarra)
Tom: G
-------------------------------------------------------------------|
-------------------------------------------------------------------|
-11-----11-----11----9-----9-----9---7-----7-----7----9-----9------|
-9--9-9-9--9-9-9--9--9-9-9-9-9-9-9-9-7-7-7-7-7-7-7-7--9-9-9-9------|
-------------------------------------------------------------------|
-------------------------------------------------------------------|

-------------------|
--2-2--------------|
--2-2--4-4---------|
--2-2--4-4---------|
--0-0--2-2---------|
-------------------|

---------------------|-----|-----|------------|-----|-------|
--2-2-------2--------|--3--|-----|----2-------|--3--|-------|
--2-2--4-4--2-2--4---|--2--|--9--|-4--2--2--4-|--2--|--9----|
--2-2--4-4--2-2--4---|--0--|--9--|-4--2--2--4-|--0--|--9----|
--0-0--2-2--0-2--2---|-----|--7--|-2--0--2--2-|-----|--7----|
--------------0------|-----|-----|-------0----|-----|-------|

----------------|
--2-2-----------|
--2-2--4-4------|
--2-2--4-4------|
--0-0--2-2------|
----------------|

--------------------------------------------------------------------------|
---------------------------------------------2--2-------------------------|
---------------------------------------------2--2--4--4-------------------|
---------------------------------------------2--2--4--4-------------------|
---------------------------------------------0--0--2--2-------------------|
--------------------------------------------------------------------------|

----------------------------------------------------------------------------|
---------------2-2-------------2-2---------------------------------2-2------|
---------------2-2-4-4---------2-2-4-4-----------------------------2-2-4-4--|
---------------2-2-4-4---------2-2-4-4-----------------------------2-2-4-4--|
---------------0-0-2-2---------0-0-2-2-----------------------------0-0-2-2--|
----------------------------------------------------------------------------|

---------------------------------------------------------------------------|
---------------------------------------------------------------------------|
------------------------------4-----------------------------------2--------|
------------------------------4-----------------------------------2--------|
------------------------------2-----------------------------------2--------|
------------------------------------------------------------------0--------|

(coro 4x)
|------------|-----|-------|
|----2-------|--3--|-------|
|-4--2--2--4-|--2--|--9----|
|-4--2--2--4-|--0--|--9----|
|-2--0--2--2-|-----|--7----|
|-------0----|-----|-------|

----------------|
--2-2-----------|
--2-2--4-4------|
--2-2--4-4------|
--0-0--2-2------|
----------------|
reproducciones 36
Acordes para:
    Composição: Blackie Lawless

    0 comentarios

    mostrar más comentarios

    ¿Conseguiste tocar?

    1 tocaron 0 aún no

    ¡Graba un vídeo tocando 95 Nasty y envianoslo!

    00:00 / 00:00
    outros vídeos desta música
    repetir qualidade Automático
    Outros vídeos desta música
    00:00 / 00:00
    Automático
    OK