Cifra Club

Arena of Pleasure

W.A.S.P.

Cifrado: Principal (guitarra y guitarra eléctrica)
Selo Cifra Club: esta cifra foi revisada para atender aos critérios oficiais da nossa Equipe de Qualidade.
tono: G
(intro)
|------------------------------------------|
|------------------------------------------|
|------------------------------------------|
|------------------------------------------|
|-2--------5-7-5--2------------------------|
|-0-000000-3-5-3--0-000000-8p7-5-7p5-3-5p3-|

(verso)
|---------------------------------------------------------|
|---------------------------------------------------------|
|---------------------------------------------------------|
|-------------------------------------------5-5-5--7-7-7--|
|-2-2-2--2-2-2--3-3-3--3-3-3--2-2-2--2-2-2--3-3-3--5-5-5--|
|-0-0-0--0-0-0--0-0-0--0-0-0--0-0-0--0-0-0----------------|

(coro)
||------------------------------------------||
||------------------------------------------||
||------------------------------------------||
||-9-9--9-9-9-----------14-12-11-9----------||
||-7-7--7-7-7-10-9-7----12-10--9-7-10-9-7---||
||-0-0--0-0-0-------10-------------------10-||

(ponte)
|---------------------------------------------------|
|---------------------------------------------------|
|---------------------------------------------------|
|-9---7---9---7---9---7---9---5---7-----------------|
|-7---5---7---5---7---5---7---3---5-----------------|
|-0-------0-------0-------0-------------------------|

(solo)
|---------------------------------|
|---------------------------------|
|---------------------------------|
|-9---7---5---2-7-9---7---5---2-7-|
|-7---5---3---0-5-7---5---3---0-5-|
|---------------------------------|

|----------------------------------------|
|----------------------------------------|
|----------------------------------------|
|-9-9--9-9-9------------9-9--9-9-9--9-9--|
|-7-7--7-7-7-10-9-7-----7-7--7-7-7--7-7--|
|-0-0--0-0-0-------10---0-0--0-0-0--0-0--|

|----------------------|
|----------------------|
|----------------------|
|-9-9--9-9-9-----------|
|-7-7--7-7-7-10-9-7----|
|-0-0--0-0-0-------10--|
Otros videos de esta canción
    40 exhibiciones
      • ½ Tono
      • A
      • Bb
      • B
      • C
      • Db
      • D
      • Eb
      • E
      • F
      • F#
      • G
      • Ab
    • Agregar a la lista

    Afinação da cifra

    Afinador online

      Ops (: Contenido disponible solo en portugués.
      OK