Cifra Club

Ballcrusher

W.A.S.P.

Cifrado: Principal (guitarra y guitarra eléctrica)
Selo Cifra Club: esta cifra foi revisada para atender aos critérios oficiais da nossa Equipe de Qualidade.
tono: Em
Riff 1:
E|------|----------------------------------|---------------------------|
B|-------|----------------------------------|--------------------------|
G|---5b-|--2-----------5----7--5--0-----5b-|-2--------5----7-----5b----| x2
D|---5b-|--2-----------5----7--5--0-----5b-|-2--------5----7-----5b----|
A|------|--0--0--0--0----0------------0----|-0--0--0----0------0-------|
E|------|----------------------------------|---------------------------|


Riff 2:
E|-----------------------------------------------------------|
B|-----------------------------------------------------------|
G|2----------------2-----------------2------------------2----|
D|2----------------2-----------------2------------------2----|
 0--0(x10)-3-2----0---0(x10)-2-3-2--0---0(x10)--3-2----0----|
E|--------------3------------------------------------3-------|

cont...
E|-----------------------|
B|-----------------------|
G|-----------------------|
D|-------------7---------|
A|--0(x6)--5---5---3-----|
E|---------3-------------|


Riff 3:

E|----------------------------------|
B|--------------------------3-------|
G|--2-----------------------0-------| x4
D|--2-------5--------7------0-------|
A|--0-------3--------5------0-------|
E|--------------------------3-------|

Riff 4 (solo):

E|------------------------------------------------------|
B|------------------------------------------------------|
G|---------5--5-------------5--5-------------5--5-------|
D|---------5--5--2----------5--5--2----------5--5--2----|
A|---------3--3--2----------3--3--2----------3--3--2----|
E|--0(x12)-------0---0(x12)-------0---0(x12)-------0----|

cont....
E|------------------------|
B|------------------------|
G|------------------------| x4
D|-----------7--------2---|
A|--7--------5--------2---|
E|--5-----------------0---|


Riff 5:

E|-----------------------------------------------|
B|-----------------------------------------------|
G|---------2---------------------7---------------| x2
D|---------2----------2----------7----------2----|
A|--0-0--0-0---0-0--0-3---0-0--0-5---0-0--0-3----|
E|-----------------------------------------------|

cont....
E|----------------------------------|
B|----------------------------------|
G|---2---------------7--------------|
D|---2-------2-------7-------2------| x2
A|---0-------3-------5-------3------|
E|----------------------------------|


That's pretty much the whole song.
There are some riffs that alternate differently
throughout the song, but you get the idea because
you're so smart.
Otros videos de esta canción
    10 exhibiciones
      • ½ Tono
      • Am
      • Bbm
      • Bm
      • Cm
      • C#m
      • Dm
      • Ebm
      • Em
      • Fm
      • F#m
      • Gm
      • G#m
    • Agregar a la lista

    Afinação da cifra

    Afinador online

      Ops (: Contenido disponible solo en portugués.
      OK