Cifra Club

Blind In Texas

W.A.S.P.

Tablatura: Principal (guitarra)
Tom: D
(intro)
Eb|----------------------3-3-3-3--2-2-2-2----------------------|
Bb|----------------------3-3-3-3--3-3-3-3----------------------|
Gb|----------------------0-0-0-0--2-2-2-2----------------------|
Db|-/-2-2-4-2--2-2-4-2---0-0-0-0--0-0-0-0-(PLAY 4 TIMES)--2-/--|
Ab|-/-0-0-0-0--0-0-0-0---2-2-2-2--------------------------2-/--|
Eb|----------------------3-3-3-3--------------------------0-/--|

             A                           D
Eb|------------------------------------------------------------------|
Bb|------------------------------------------------------------------|
Gb|----------------------------------2-2-4-2--2-2-4-2-(play 2 times)-|
Db|-2-2-4-2--2-2-4-2-(play 4 times)--0-0-0-0--0-0-0-0----------------|
Ab|-0-0-0-0--0-0-0-0-------------------------------------------------|
Eb|------------------------------------------------------------------|

        A                                    E        D         A
Eb|-----------------------------------------------------------|
Bb|------------------------------------------3-3-3-3----------|
Gb|------------------------------------------2-2-2-2----------|
Db|-2-2-4-2--2-2-4-2-(play 2 times)-2-2-2-2--0-0-0-0-2-2-2-2--|
Ab|-0-0-0-0--0-0-0-0----------------2-2-2-2----------0-0-0-0--|
Eb|---------------------------------0-0-0-0-------------------|

(chorus)
G       D       A
I'm Blind in Texas
E A     G D     A
The lone star, is hot tonight
I'm Blind in Texas
G       D       E
The Cannibals have taken my eyes

(solo 3x)
D       E
D       A
reproducciones 61
Acordes para:
    Composição: Blackie Lawless

    0 comentarios

    mostrar más comentarios

    ¿Conseguiste tocar?

    1 tocaron 0 aún no

    ¡Graba un vídeo tocando Blind In Texas y envianoslo!

    00:00 / 00:00
    outros vídeos desta música
    repetir qualidade Automático
    Outros vídeos desta música
    00:00 / 00:00
    Automático
    OK