Cifra Club

Chainsaw Charlie

W.A.S.P.

Tablatura: Principal (guitarra)
Tom: D
(intro)
|-----------------------------------------------------|
|-----------------------------------------------------|
|-----------------------------------------------------|
|-111111111111111111111111111111111111111111-14----11-|
|--9-9-9-9-9-9-9-9-9-9-9-9-9-9-9-9-9-9-9-9-9-12-14--9-|
|-----------------------------------------------12----|

|------------------------------------------------------------------|
|------------------------------------------------------------------|
|------------------------------------------------------------------|
|-14_-11-11-11-12_-999-11_-12_-999-11_-777-9_-9_-666-7_-444-6D2-4_-|
|-14_-11-11-11-12_-999-11_-12_-999-11_-777-9_-9_-666-7_-444-6D2-4_-|
|------------------------------------------------------------------|

(verse)
|-------------------------|
|-------------------------|
|-------------------------|
|-------------7___--9___--|
|-9___--7___--5___--7___--|
|-7___--5___--------------|

(pre-refrão)
|--------------------------------------------|-------||-------|
|--------------------------------------------|-------||-------|
|--------------------------------------------|-------||-------|
|-11___--7___--------9___--11___--7___-------|-11___-||-------|
|--9___--5___--7___--7___---9___--5___--9___-|--9___-||(9)___-|
|--------------5___---------------------7___-|-------||(7)___-|

(refrão)
|--------------------------|
|--------------------------|
|--------------------------|
|-11___--7___-----9_-11___-|
|--9___--5___--9_-7_--9___-|
|--------------7_----------|

(ponte)
|------------------|
|------------------|
|------------------|
|------------------|
|-11___-11-11-12-9-|
|--9___--9--9-10-7-|

(durante o solo)
|----------------------|
|----------------------|
|----------------------|
|-11___-9___-7___------|
|--9___-7___-5___-9___-|
|-----------------7___-|

(após o solo)
|-----------------------------------------|
|-----------------------------------------|
|-----------------------------------------|
|-11_-11-9_-9-7_-7------------------------|
|--9_--9-7_-7-5_-5-11_--------------------|
|-------------------9_--------------------|

(medley)
|-----------------------------------------------------|
|-----------------------------------------------------|
|-----------------------------------------------------|
|-11-11-11---------6-6-6---------7-7-6---------7-6-11-|
|--9--9--9-9999999-7-7-7-7777777-5-5-7-7777777-5-7--9-|
|-----------------------------------------------------|

|-----------------------------------|
|-----------------------------------|
|-----------------------------------|
|-11-12-9-11-77-9___-7-7----9-9-11_-|
|--9--9-9--9-99-7___-5-5-9_-7-7--9_-|
|------------------------7_---------|

|---------------------------------------------------------------|
|---------------------------------------------------------------|
|---------------------------------------------------------------|
|-11-11-11---------11-11-11---------9-9-9---------76-11---------|
|--9--9--9-9999999--9--9--9-9999999-7-7-7-7777777-77--9-9999999-|
|---------------------------------------------------------------|

|------------------------------------------------------------------------|
|------------------------------------------------------------------------|
|------------------------------------------------------------------------|
|------------------------------------------------------------------------|
|-9-999-999-999-999-999-999-999-99-5-555-555-555-55----------------------|
|--------------------------------------------------7-777-777-777-77------|
reproducciones 40
Acordes para:
    Composição: Blackie Lawless

    0 comentarios

    mostrar más comentarios

    ¿Conseguiste tocar?

    1 tocaron 0 aún no

    ¡Graba un vídeo tocando Chainsaw Charlie y envianoslo!

    00:00 / 00:00
    outros vídeos desta música
    repetir qualidade Automático
    Outros vídeos desta música
    00:00 / 00:00
    Automático
    OK