Cifra Club

I Wanna Be Somebody

W.A.S.P.

Cifrado: Principal (guitarra y guitarra eléctrica)
Selo Cifra Club: esta cifra foi revisada para atender aos critérios oficiais da nossa Equipe de Qualidade.
tono: Em
verse
E|-----------------------------------------------------------------------|
B|-----------------------------------------------------------------------|
G|-----------------------0-2-----------------------0-2-------------------|
D|-----------------------0-2-----------------------0-2-------------------|
A|-000000000000000000000-----000000000000000000000-----------------------|
E|-----------------------------------------------------------------------|
   *********************     *********************
E|-----------------------------------------------------------------------|
B|-----------------------------------------------------------------------|
G|-----------------------------------------------------------------------|
D|-----------------------------7------7---5---4--------------------------|
A|-000000000000000000000000000-5------5---3---2---5----------------------|
E|------------------------------------------------3----------------------|
   ***************************
bridge
E|-----------------------------------------------------------------------|
B|-----------------------------------------------------------------------|
G|--------2------------------2------------------7-----7------------------|
D|-3------2-----------3------2-----------3------7-----7------------------|
A|-3------0---5-3-2---3------0---5-3-2---3------5-----5------------------|
E|-1----------------3-1----------------3-1-------------------------------|

chorus and solo backing
E|-----------------------------------------------------------------------|
B|-----------------------------------------------------------------------|
G|-2---------------------------7-----------------------------------------|
D|-2------2------2------3------7---2p0-----------------------------------|
A|-0---0000---0000------3------5-------3-2p0-----------------------------|
E|----------------------1--------------------3---------------------------|
       ***    ***
interlude
E|-----------------------------------------------------------------------|
B|-----------------------------------------------------------------------|
G|-----------------------------------------------------------------------|
D|-2---7---5---7-5-4---2------2---7---5---7-5-4--------------------------|
A|-0-5-5---3---5-3-2-5-0------0-5-5---3---5-3-2-5-2----------------------|
E|---3---------------3----------3---------------3-0----------------------|

chorus after the solo
E|-----------------------------------------------------------------------|
B|-----------------------------------------------------------------------|
G|-----------------------------------------------------------------------|
D|-2---2-------7---2p0---------------------------------------------------|
A|-0---0---3---5-------3-2p0---------------------------------------------|
E|---------1-----------------3-------------------------------------------|

ending
E|-----------------------------------------------------------------------|
B|-----------------------------------------------------------------------|
G|-9---------7---------5---4---------------------------------------------|
D|-7---------5---------3---2---5---7-------------------------------------|
A|-----0-0-0-----0-0-0---------3---5-------------------------------------|
E|-----------------------------------------------------------------------|
       * * *     * * *
Otros videos de esta canción
    80 exhibiciones
      • ½ Tono
      • Am
      • Bbm
      • Bm
      • Cm
      • C#m
      • Dm
      • Ebm
      • Em
      • Fm
      • F#m
      • Gm
      • G#m
    • Agregar a la lista

    Afinação da cifra

    Afinador online

      Ops (: Contenido disponible solo en portugués.
      OK