Cifra Club

I'm Alive

W.A.S.P.

Tablatura: Principal (guitarra)
Tom: D
(intro 4x)
E |-----------------------------------------------------------------|
H|-----------------------------------------------------------------|
G |-----------------------------------------------------------------|
D |---------------------------------777-777-777-777-999-999-999-999-|
A |-444-444-444-444-444-444-444-444-555-555-555-555-777-777-777-777-|
E |-222-222-222-222-222-222-222-222---------------------------------|

E |-----------------------------------------------------------------|
H|-----------------------------------------------------------------|
G |-----------------------------------------------------------------|
D |-----------------------------------------------------------------|
A |-444-444-444-444-444-444-444-444-444-444-444-444-444-444-444-444-|
E |-222-222-222-222-222-222-222-222-222-222-222-222-222-222-222-222-|

E |-----------------------------------------------------------------|
H|-----------------------------------------------------------------|
G |-----------------------------------------------------------------|
D |---------------------------------777-777-777-777-999-999-999-999-|
A |-444-444-444-444-444-444-444-444-555-555-555-555-777-777-777-777-|
E |-222-222-222-222-222-222-222-222---------------------------------|

E |-----------------------------------------------------------------|
H|-----------------------------------------------------------------|
G |-----------------------------------------------------------------|
D |---------------------------------777-777-777-777-999-999-999-999-|
A |-444-444-444-444-444-444-444-444-555-555-555-555-777-777-777-777-|
E |-222-222-222-222-222-222-222-222---------------------------------|

E |-----------------------------------------------------------------|
H|-----------------------------------------------------------------|
G |-7---------------------------------------7-----------------------|
D |-7---2-----------------------------------7---2-------------------|
A |-5---2---444-444-444-444-444-444-444-444-5---2---444-444-444-444-|
E |-----0---222-222-222-222-222-222-222-222-----0---222-222-222-222-|

E |-----------------------------------------------------------------|
H|-----------------------------------------------------------------|
G |-----------------2-----2-----4-----4-----7-----7-----6-----6-----|
D |-----------------2-----2-----4-----4-----7-----7-----6-----6-----|
A |-444-444-444-444-0-----0-----2-----2-----5-----5-----4-----4-----|
E |-222-222-222-222-------------------------------------------------|

E |-----------------------------------------------------------------|
H|-----------------------------------------------------------------|
G |-----------------------------------------------------------------|
D |-----------------------7----9--------------------------7----9----|
A |--4----4----4----4-----5----7-----4----4----4----4-----5----7----|
E |--2----2----2----2----------0-----2----2----2----2----------0----|

E |-----------------------------------------------------------------|
H|-----------------------------------------------------------------|
G |-----------------------------------------------------------------|
D |-----------------------------------------------------------------|
A |-4~--------------------------------------------------------------|
E |-2~--------------------------------------------------------------|

E |-----------------------------------------------------------------|
H|-----------------------------------------------------------------|
G |-----------------------------------------------------------------|
D |---------------------------------777-777-777-777-999-999-999-999-|
A |-444-444-444-444-444-444-444-444-555-555-555-555-777-777-777-777-|
E |-222-222-222-222-222-222-222-222---------------------------------|

E |-----------------------------------------------------------------|
H|-----------------------------------------------------------------|
G |-----------------------------------------------------------------|
D |---------------------------------777-777-777-777-999-999-999-999-|
A |-444-444-444-444-444-444-444-444-555-555-555-555-777-777-777-777-|
E |-222-222-222-222-222-222-222-222---------------------------------|

E |-----------------------------------------------------------------|
H|-----------------------------------------------------------------|
G |-7---------------------------------------7-----------------------|
D |-7---2-----------------------------------7---2-------------------|
A |-5---2---444-444-444-444-444-444-444-444-5---2---444-444-444-444-|
E |-----0---222-222-222-222-222-222-222-222-----0---222-222-222-222-|

E |-----------------------------------------------------------------|
H|-----------------------------------------------------------------|
G |-----------------2-----2-----4-----4-----7-----7-----6-----6-----|
D |-----------------2-----2-----4-----4-----7-----7-----6-----6-----|
A |-444-444-444-444-0-----0-----2-----2-----5-----5-----4-----4-----|
E |-222-222-222-222-------------------------------------------------|

E |-----------------------------------------------------------------|
H|-----------------------------------------------------------------|
G |-----------------------------------------------------------------|
D |-----------------------7----9--------------------------7----2----|
A |--4----4----4----4-----5----7-----4----4----4----4-----5----2----|
E |--2----2----2----2----------0-----2----2----2----2----------0----|

E |-----------------------------------------------------------------|
H|-----------------------------------------------------------------|
G |-----------------------------------------------------------------|
D |---------------------------3--555-555-555-555-555-555-555-3--555-|
A |-4~------------------------1--333-333-333-333-333-333-333-1--333-|
E |-2~--------------------------------------------------------------|

E |-----------------------------------------------------------------|
H|-----------------------------------------------------------------|
G |-----------------------------------------------------------------|
D |-555-555-555-555-555-555-555-3--555-555-555-555-555-555-555-3-555|
A |-333-333-333-333-333-333-333-1--333-333-333-333-333-333-333-1-333|
E |-----------------------------------------------------------------|

E |-----------------------------|    E|-----------------------------|
H|-----------------------------|    H|-----------------------------|
G |-----------------------------|    G|-7---------------------------|
D |-555-555-555-555-555-555-555-|    D|-7---2-----------------------|
A |-333-333-333-333-333-333-333-|    A|-5---2---444-444-444-444-444-|
E |-----------------------------|    E|-----0---222-222-222-222-222-|

E |-----------------------------------------------------------------|
H|-----------------------------------------------------------------|
G |------------7---------------------------------------2-----2----4-|
D |------------7---2-----------------------------------2-----2----4-|
A |444-444-444-5---2---444-444-444-444-444-444-444-444-0-----0----2-|
E |222-222-222-----0---222-222-222-222-222-222-222-222--------------|

E |---------------------------------------------|
H|---------------------------------------------|
G |----4-----7-----7----------------------------|
D |----4-----7-----7-----6\--6\--6\--6\--6-\----|
A |----2-----5-----5-----4\--4\--4\--4\--4-\----|
E |---------------------------------------------|

E |-----------------------------------------------------------------|
H|-----------------------------------------------------------------|
G |-----------------------------------------------------------------|
D |-----------------------7----2--------------------------7----2----|
A |--4----4----4----4-----5----2-----4----4----4----4-----5----2----|
E |--2----2----2----2----------0-----2----2----2----2----------0----|

E |-----------------------------------------------------------------|
H|-----------------------------------------------------------------|
G |-----------------------------------------------------------------|
D |-----------------------7----2--------------------------7----2----|
A |--4----4----4----4-----5----2-----4----4----4----4-----5----2----|
E |--2----2----2----2----------0-----2----2----2----2----------0----|

E |-----------------------------------------------------------------|
H|-----------------------------------------------------------------|
G |-----------------------------------------------------------------|
D |-----------------------7----2--------------------------7----2----|
A |--4----4----4----4-----5----2-----4----4----4----4-----5----2----|
E |--2----2----2----2----------0-----2----2----2----2----------0----|
reproducciones 43
Acordes para:
    Composição: Blackie Lawless

    0 comentarios

    mostrar más comentarios

    ¿Conseguiste tocar?

    0 tocaron 0 aún no

    ¡Graba un vídeo tocando I'm Alive y envianoslo!

    00:00 / 00:00
    outros vídeos desta música
    repetir qualidade Automático
    Outros vídeos desta música
    00:00 / 00:00
    Automático
    OK