Cifra Club

Inside The Electric Circus

W.A.S.P.

Tablatura: Principal (guitarra)
Tom: D
pm-------------] pm----]     pm----------------------------------------------|
E |---------------------------------------------------------------------------|
B |---------------------------------------------------------------------------|
G |---------------------------------------------------------------------------|
D |--------------4-4-------4-4-------4-444-------4-2-4-4-2-4-2-2--4-2-4-2-2---|
A |--------------4-4-------4-4-------4-444-------4-2-4-4-2-4-2-2--4-2-4-2-2---|
E |222222222222222-222222222-222222222-222-------2-0-2-2-0-2-0-0--2-0-2-0-0---|

E |-----------------------------------------------------------------------------|
B |-----------------------------------------------------------------------------|
G |-----------------------------------------------------------------------------|
D |44-4/7----7/9\7----44-4/7----7/9\7-------------------------------------------|
A |44-4/7----7/9\7----44-4/7----7/9\7-------------------------------------------|
E |22-2/5----5/7\5----22-2/5----5/7\5-------------------------------------------|
reproducciones 35
Acordes para:
    Composição: Blackie Lawless

    0 comentarios

    mostrar más comentarios

    ¿Conseguiste tocar?

    1 tocaron 0 aún no

    ¡Graba un vídeo tocando Inside The Electric Circus y envianoslo!

    00:00 / 00:00
    outros vídeos desta música
    repetir qualidade Automático
    Outros vídeos desta música
    00:00 / 00:00
    Automático
    OK