Cifra Club

Mephisto Waltz

W.A.S.P.

Tablatura: Principal (guitarra)
Tom: G
(Blackie Lawless)
from the album "The Headless Children"


timing 12/8

Both guitars let ring throughout

E :| ------------------------|------------------------ 1|
B :| ------------0-----------|------------1-----0----- ||
G :|*------0-------0---2-----|------0-------0-----0---*||
D :|*----4---4-----------4---|----5---5---------------*||
A :| --2-------2-----2-----2-|--3-------3-----3-----3- ||
E :| 0-----------------------|0----------------------- ||

E :| ------------------------|------------------------ 1|
B :| ------------------------|------------------------ ||
G :|*------------------------|------------------------*||
D :|*------------------------|------------------------*||
A :| ------------------------|------------------------ ||
E :| 0-----------------------|0----------------------- ||

==============================================================================

E :------------------------|---------------------------|
B :------------0-----------|--------------1------0-----|
G :------0-------0---2-----|-------0--------0------0---|
D :----4---4-----------4---|----5----5-----------------|
A :--2-------2-----2-----2-|--3--------3------3------3-|
E :0-----------------------|0--------------------------|

E :----0-----0-----0-----0-|----0------0------0------0-|
B :--0-----0-----0-----0---|--0------0------0------0---|
G :9-----7-----9-----7-----|9-----11-----12-----11-----|
D :------------------------|---------------------------|
A :------------------------|---------------------------|
E :------------------------|---------------------------|

==============================================================================

E :------------------------|---------------------------|
B :------------0-----------|--------------1------0-----|
G :------0-------0---2-----|-------0--------0------0---|
D :----4---4-----------4---|----5----5-----------------|
A :--2-------2-----2-----2-|--3--------3------3------3-|
E :0-----------------------|0--------------------------|

E :----0-----0-----0-----0-|----0------0------0------0-|
B :--0-----0-----0-----0---|--0------0------0------0---|
G :9-----7-----9-----7-----|9-----11-----12-----11-----|
D :------------------------|---------------------------|
A :------------------------|---------------------------|
E :------------------------|---------------------------|

==============================================================================

E :---------------------------|----------------------------|
B :----0------0------0------0-|----------------------------|
G :---------------------------|-----0------0------0------0-|
D :--5------7------5------4---|---5------4------2------2---|
A :7------9------7------5-----|-3------3------3------3-----|
E :---------------------------|----------------------------|

E :----0------0------0------0-|-----0------0------0------0-|
B :--0------0------0------0---|---0------0------0------0---|
G :9-----11-----12-----14-----|16-----14-----12-----11-----|
D :---------------------------|----------------------------|
A :---------------------------|----------------------------|
E :---------------------------|----------------------------|

==============================================================================

E :---------------------------|----------------------------|
B :----0------0------0------0-|----------------------------|
G :---------------------------|-----0------0------0------0-|
D :--5------7------5------4---|---5------4------2------0---|
A :7------9------7------5-----|-3------3------3------3-----|
E :---------------------------|----------------------------|

E :----0------0------0------0-|-----0------0------0------0-|
B :--0------0------0------0---|---0------0------0------0---|
G :9-----11-----12-----14-----|16-----14-----12-----11-----|
D :---------------------------|----------------------------|
A :---------------------------|----------------------------|
E :---------------------------|----------------------------|

==============================================================================

E :------------------------|------------------------|
B :----0-----0-----0-----0-|------------------------|
G :------------------------|----0-----0-----0-----0-|
D :--5-----7-----5-----4---|--5-----4-----2-----2---|
A :7-----9-----7-----5-----|3-----3-----3-----3-----|
E :------------------------|------------------------|

E :----0-----0-----0-----0-|----0-----0-----0-----0-|
B :--0-----0-----0-----0---|--0-----0-----0-----0---|
G :9-----7-----5-----4-----|5-----4-----0-----2-----|
D :------------------------|------------------------|
A :------------------------|------------------------|
E :------------------------|------------------------|

=============================================================================

E :------------------------|------------------------|
B :----0-----0-----0-----0-|------------------------|
G :------------------------|----0-----0-----0-----0-|
D :--5-----7-----5-----4---|--5-----4-----2-----0---|
A :7-----9-----7-----5-----|3-----3-----3-----3-----|
E :------------------------|------------------------|

E :----0-----0-----0-----0-|----0-----0-----0-----0-|
B :--0-----0-----0-----0---|--0-----0-----0-----0---|
G :9-----7-----5-----4-----|5-----4-----0-----2-----|
D :------------------------|------------------------|
A :------------------------|------------------------|
E :------------------------|------------------------|

==============================================================================

E :---------------------------|----------------------------|
B :----0------0------0------0-|----------------------------|
G :---------------------------|-----0------0------0------0-|
D :--5------7------5------4---|---5------4------2------2---|
A :7------9------7------5-----|-3------3------3------3-----|
E :---------------------------|----------------------------|

E :----0------0------0------0-|-----0------0------0------0-|
B :--0------0------0------0---|---0------0------0------0---|
G :9-----11-----12-----14-----|16-----14-----12-----11-----|
D :---------------------------|----------------------------|
A :---------------------------|----------------------------|
E :---------------------------|----------------------------|

==============================================================================

E :---------------------------|----------------------------|
B :----0------0------0------0-|----------------------------|
G :---------------------------|-----0------0------0------0-|
D :--5------7------5------4---|---5------4------2------0---|
A :7------9------7------5-----|-3------3------3------3-----|
E :---------------------------|----------------------------|

E :----0------0------0------0-|-----0------0------0------0-|
B :--0------0------0------0---|---0------0------0------0---|
G :9-----11-----12-----14-----|16-----14-----12-----11-----|
D :---------------------------|----------------------------|
A :---------------------------|----------------------------|
E :---------------------------|----------------------------|

==============================================================================

E :------------------------|------------------------|
B :----0-----0-----0-----0-|------------------------|
G :------------------------|----0-----0-----0-----0-|
D :--5-----7-----5-----4---|--5-----4-----2-----2---|
A :7-----9-----7-----5-----|3-----3-----3-----3-----|
E :------------------------|------------------------|

E :----0-----0-----0-----0-|----0-----0-----0-----0-|
B :--0-----0-----0-----0---|--0-----0-----0-----0---|
G :9-----7-----5-----4-----|5-----4-----0-----2-----|
D :------------------------|------------------------|
A :------------------------|------------------------|
E :------------------------|------------------------|

==============================================================================

E :---------------------------|----------------------------|
B :----0------0------0------0-|----------------------------|
G :---------------------------|-----0------0------0------0-|
D :--5------7------5------4---|---5------4------2------2---|
A :7------9------7------5-----|-3------3------3------3-----|
E :---------------------------|----------------------------|

E :----0------0------0------0-|-----0------0------0------0-|
B :--0------0------0------0---|---0------0------0------0---|
G :9-----11-----12-----14-----|16-----14-----12-----11-----|
D :---------------------------|----------------------------|
A :---------------------------|----------------------------|
E :---------------------------|----------------------------|

==============================================================================

E :---------------------------|----------------------------|
B :----0------0------0------0-|----------------------------|
G :---------------------------|-----0------0------0------0-|
D :--5------7------5------4---|---5------4------2------2---|
A :7------9------7------5-----|-3------3------3------3-----|
E :---------------------------|----------------------------|

E :----0------0------0------0-|-----0------0------0------0-|
B :--0------0------0------0---|---0------0------0------0---|
G :9-----11-----12-----14-----|16-----14-----12-----11-----|
D :---------------------------|----------------------------|
A :---------------------------|----------------------------|
E :---------------------------|----------------------------|

==============================================================================

E :---------------------------|----------------------------|
B :----0------0------0------0-|----------------------------|
G :---------------------------|-----0------0------0------0-|
D :--5------7------5------4---|---5------4------2------0---|
A :7------9------7------5-----|-3------3------3------3-----|
E :---------------------------|----------------------------|

E :----0------0------0------0-|-----0------0------0------0-|
B :--0------0------0------0---|---0------0------0------0---|
G :9-----11-----12-----14-----|16-----14-----12-----11-----|
D :---------------------------|----------------------------|
A :---------------------------|----------------------------|
E :---------------------------|----------------------------|

==============================================================================

  slow tempo down

E :----------------------------|----------------------------|-------|
B :----------------------------|----------------------------|-------|
G :-----0------0------0------0-|-----0------0------0------0-|4------|
D :---5------4------2------0---|---5------4------2------0---|2------|
A :-3------3------3------3-----|-3------3------3------3-----|2------|
E :----------------------------|----------------------------|0------|

E :-----0------0------0------0-|-----0------0------0------0-|0------|
B :---0------0------0------0---|---0------0------0------0---|-------|
G :16-----14-----12-----11-----|16-----14-----12-----11-----|-------|
D :----------------------------|----------------------------|-------|
A :----------------------------|----------------------------|-------|
E :----------------------------|----------------------------|-------|


Comments, questions, etc to Hellion (*)
reproducciones 35
Acordes para:
    Composição: Blackie Lawless

    0 comentarios

    mostrar más comentarios

    ¿Conseguiste tocar?

    0 tocaron 0 aún no

    ¡Graba un vídeo tocando Mephisto Waltz y envianoslo!

    00:00 / 00:00
    outros vídeos desta música
    repetir qualidade Automático
    Outros vídeos desta música
    00:00 / 00:00
    Automático
    OK