Cifra Club

The Heretic

W.A.S.P.

Tablatura: Principal (guitarra)
Tom: D
(intro)
E |---------------------------------------|
B |---------------------------------------|
G |---------------------------------------|
D |-------9---10------9-----9---7---------|
A |-----7--------7------7---------7-------|
E |---0-----0------0------0---0-----0-----|

E |---------------------------------------------------------------------------|
B |---------------------------------------------------------------------------|
G |---------------------------------------------------------------------------|
D |---9--9--9-------------------10--10--10------------------------------------|
A |---7--7--7--------------------7---7---7------------------------------------|
E |------------0-0-0-0-0-0-0-0---------------0-0-0-0-0-0-0-0------------------|

E |---------------------------------------------------------------------------|
B |---------------------------------------------------------------------------|
G |---------------------------------------------------------------------------|
D |-----12--12--12--------------------9---7---9-------------------------------|
A |------7---7---7--------------------7---5---7--------------5~~--------------|
E |-----------------0-0-0-0-0-0-0-0--------------0-0-0-0-5h7------------------|

E |---------------------------------------------------------------------------|
B |---------------------------------------------------------------------------|
G |---------------------------------------------------------------------------|
D |---5---7---9---------------------------5---7-------------------------------|
A |---3---5---7---------------------------3---5---3-----5---------------------|
E |--------------0-0-0-0-0-0-0-0------------------1-----3---------------------|

E |---------------------------------------------------------------------------|
B |---------------------------------------------------------------------------|
G |---------------------0--------------0--------------------------------------|
D |---9---------2-------0------2-------0-----2----------9---------------------|
A |---7---------0--------------0-------------0----------7---------------------|
E |---------------------3--------------3--------------------------------------|

E |-------------------------------------------------|----7-------|--12------|------
B |-------------------------------------------------|---10-B-12--|--15-B-17-|------
G |-------------------------------------------------|------------|----------|--12--
D |---9---7---9---7-------7---9---------------------|------------|----------|------
A |---7---5---7---5-------5---7---------------------|------------|----------|-----12-
E |-------------------7-----------0-0-0-0-0-0-0-0---|------------|----------|------

-------------------------|
-------------------------|
-----------------12------|
-------12-H-14-------14~-|
-H-14--------------------|
-------------------------|

E |---------------------------------------------------------------------------|
B |---------------------------------------------------------------------------|
G |---------------------------------------------------------------------------|
D |-------5----------------5--------------------------------------------------|
A |---7-------7---5----7--------7---5----7------------------------------------|
E |-------------------------------------------0-0-0-0-0-0-0-0-----------------|

E |---------------------------------------------------------------------------|
B |---------------------------------------------------------------------------|
G |-------7----------------7--------------------------------------------------|
D |---9-------9---7----9--------9---7----9------------------------------------|
A |---------------------------------------------------------------------------|
E |------------------------------------------0-0-0-0-0-0-0-0------------------|

E |---------------------------------------------------------------------------|
B |---------------------------------------------------------------------------|
G |---------------------------------------------------------------------------|
D |---------------------------------------------------------------------------|
A |--2------------------------------------------------------------------------|
E |--0------------------------------------------------------------------------|

E |---------------------------------------------------------------------------|
B |----------------------------------15---------------------------------------|
G |----------11------12------14----------------12----11-----------------------|
D |--12--12------12------12------12-----12--12----12----12--------------------|
A |---------------------------------------------------------------------------|
E |---------------------------------------------------------------------------|

E |---------------------------------------------------------------------------|
B |----------------------------------15---------------------------------------|
G |----------11------12------14----------------12----11-----------------------|
D |--12--12------12------12------12-----12--12----12----12--------------------|
A |---------------------------------------------------------------------------|
E |---------------------------------------------------------------------------|

E |---------------------------------------------------------------------------|
B |----------------------------------13---------------------------------------|
G |-----------9-------10------12----------------10----9-----------------------|
D |--10--10-------10------12-----12-----12--12-----12----12-------------------|
A |---------------------------------------------------------------------------|
E |---------------------------------------------------------------------------|

E |---------------------------------------------------------------------------|
B |----------------------------------15---------------------------------------|
G |----------11------12------14----------------12----11-----------------------|
D |--12--12------12------12------12-----12--12----12----12--------------------|
A |---------------------------------------------------------------------------|
E |---------------------------------------------------------------------------|

E |---------------------------------------------------------------------------|
B |---------------------------------------------------------------------------|
G |---------------------------------------------------------------------------|
D |--7---7----7----------------------------7---7----7-------------------------|
A |--5---5----5----5-5-5-5-5-5-5-5---------5---5----5----5-5-5-5-5-5-5-5------|
E |---------------------------------------------------------------------------|

E |---------------------------------------------------------------------------|
B |---------------------------------------------------------------------------|
G |---------------------------------------------------------------------------|
D |--5----5----5---------------------------7----7---7-------------------------|
A |--3----3----3----3-3-3-3-3-3-3-3--------5----5---5----5-5-5-5-5-5-5-5------|
E |---------------------------------------------------------------------------|

E |---------------------------------------------------------------------------|
B |---------------------------------------------------------------------------|
G |---------------------------------------------------------------------------|
D |-----3--------5--------7---------------------------------------------------|
A |-----1--------3--------5------5-5-5-5-5-5-5-5------------------------------|
E |---------------------------------------------------------------------------|

E |---------------------------------------------------------------------------|
B |---------------------------------------------------------------------------|
G |---------------------------------------------------------------------------|
D |---------------------------------------------------------------------------|
A |--10--9--7--10--9--7--10--9--10--9-----10--9--7--10--9--7--10--9--10--9----|
E |---------------------------------------------------------------------------|

E |---------------------------------------------------------------------------|
B |---------------------------------------------------------------------------|
G |---------------------------------------------------------------------------|
D |---9-----------------12---------------14-----------------------------------|
A |---7-----------------10---------------12---12-12-12-12-12-12-12-12---------|
E |---------0-----0----------0-----0------------------------------------------|
reproducciones 33
Acordes para:

    0 comentarios

    mostrar más comentarios

    ¿Conseguiste tocar?

    0 tocaron 0 aún no

    ¡Graba un vídeo tocando The Heretic y envianoslo!

    00:00 / 00:00
    outros vídeos desta música
    repetir qualidade Automático
    Outros vídeos desta música
    00:00 / 00:00
    Automático
    OK