Cifra Club

The Last Command

W.A.S.P.

Tablatura: Principal (guitarra)
Tom: C
(intro)
     G   C   F   G    Bb
E |-------------|---------------------------------------------|
B |-------------|---------------------------------------------|
G |-----5-------|-12----12---14----14---15-14-12-14-12-10b12--|
D |-5---5---3---|----12---------12----------------------------|
A |-5---3---3---|---------------------------------------------|
E |-3-------1---|---------------------------------------------|

     G   F   G   F   C   Eb  G   F  D
E |------------------------------------|
B |------------------------------------|
G |-----------------5---8----------7---|
D |-5---3---5---3---5---8---5---3--7---|
A |-5---3---5---3---3---6---5---3--5---|
E |-3---1---3---1-----------3---1------|

     G            G            C  Bb C        F   C   G
E |------------------------------------------------------|--------------------------|
B |------------------------------------------------------|--------------------------|
G |-----3------------3--------5---3/5--5-5-------5-------|--------------------------|
D |-5---3-5-3-3--5---3-5-3-3--5---3/5--5-5---3---5---5---|-5-3---5-3---5-3-------3--|
A |-5-5---5-3-3--5-5---5-3-3--3---1/3--3-5---3---3---5---|-----5-----5-----5-3-5----|
E |-3-3----------3-3-------------------------1-------3---|--------------------------|

     Eb  G   Eb  D     D   C   Bb  C    A
E |-----------------|----------------|----|
B |-----------------|----------------|----|
G |-8-------8---7---|-7---5---3---5--|-2--|
D |-8---5---8---7---|-7---5---3---5--|-2--|
A |-6---5---6---5---|-5---3---1---3--|-0--|
E |-----3-----------|----------------|----|
reproducciones 61
Acordes para:
    Composição: Blackie Lawless

    0 comentarios

    mostrar más comentarios

    ¿Conseguiste tocar?

    0 tocaron 0 aún no

    ¡Graba un vídeo tocando The Last Command y envianoslo!

    00:00 / 00:00
    outros vídeos desta música
    repetir qualidade Automático
    Outros vídeos desta música
    00:00 / 00:00
    Automático
    OK