Cifra Club

Thunderhead

W.A.S.P.

Cifrado: Principal (guitarra y guitarra eléctrica)
Selo Cifra Club: esta cifra foi revisada para atender aos critérios oficiais da nossa Equipe de Qualidade.
tono: Ab
Intro
E|-----------------------------------------------|
B|-----------------------------------------------|
G|-----------------------------------------------|
D|-----------------------------------------------|
A|-----------------------------------------0-----|
E|-0-2-2-2-2-2-0-2-2-2-2-2-0-2-2-2-2-2-0-2----0--|

E|-------------------------------------------|
B|-------------------------------------------|
G|-------------------------------------------|
D|-------------------------------------7-6-9-|
A|-------------------------------------5-4-7-|
E|-0-2-2-2-2-2-0-2-2-2-2-2-0-2-2-2-2-2-------|

E|------------------------------------------------------------|
B|------------------------------------------------------------|
G|------------------------------------------------------------|
D|-11------2------4------7---9----------2------4------7---9---|
A|-9-------0------2------5---7---4------0------2------5---7---| x2
E|-------------------------------2----------------------------|

Verse
E|-------------------------------------------------|
B|-------------------------------------------------|
G|-------------------------------------------------|
D|-------------------------------------------------|
A|-------------------------------------------------| x2
|-0-2-2-2-2-2-0-2-2-2-2-2-0-2-2-2-2-2-0-2-2-2-2-2-|

E|-------------------------------|
B|-------------------------------|
G|-------------------------------|
D|-2------4----------2-----------|
A|-0------2------2---0---4-------|
E|---------------0-------2-------|

Chorus
E|---------------------------------------------------------|
B|---------------------------------------------------------|
G|---------------------------------------------------------|
D|-2--------------2--------------2--------------2----------|
A|-0---2---4------0---2---4------0---2---4------0---4------|
E|-----0---2----------0---2----------0---2----------2------|

E|---------------------------------------|
B|---------------------------------------|
G|---------------------------------------|
D|-2------4------4-2-0-4-2-0-------------|
A|-0------2------------------4-2-0-------|
E|---------------------------------4-2-0-|

End On
E|---|
B|---|
G|---|
D|---|
|-4-|
|-2-|

Bridge
E|----------------------------------|
B|----------------------------------|
G|-----------4-6---6-7-6---6-7-6-4--|
D|-----------4-6---6-7-6---6-7-6-4--|
A|-6--------------------------------|
E|-4---4-4-4------------------------|

Solo Backing
E|-----------------------------|
B|-----------------------------|
G|-----------------------------|
D|----------------------6------|
A|-6------9------4------4------|
E|-4------7------2-------------|

When The Guitars Come Back in (5:50)
E|---------------------------------------------------------------|
B|---------------------------------------------------------------|
G|---------------------------------------------------------------|
D|-------------------------------------------------6------8------|
A|-6-6-4-2------4------6-------6-6-4-2------4------4------6------|
E|-4-4-2-0------2------4-------4-4-2-0------2--------------------|

End Chorus
E|---------------------------------------------------------|
B|---------------------------------------------------------|
G|---------------------------------------------------------|
D|-4--------------4--------------4--------------4----------|
A|-2---4---6------2---4---6------2---4---4------2---4------|
E|-----2---4----------2---4----------2---2----------2------|

E|---------------|
B|---------------|
G|---------------|
D|-4------6------|
A|-2------4------|
E|---------------|

End On
E|---|
B|---|
G|---|
D|---|
|-6-|
|-4-|

Ending
E|----------------------------------|
B|----------------------------------|
G|----------------------------------|
D|----------------6-----------------|
A|-6----4----2----4--------9-8-4-6--|
E|-4----2----0-------------7-6-2-4--|
Otros videos de esta canción
    4 exhibiciones
      • ½ Tono
      • A
      • Bb
      • B
      • C
      • Db
      • D
      • Eb
      • E
      • F
      • F#
      • G
      • Ab
    • Agregar a la lista

    Afinação da cifra

    Afinador online

      Ops (: Contenido disponible solo en portugués.
      OK