Cifra Club

Torture Never Stops

W.A.S.P.

Cifrado: Principal (guitarra y guitarra eléctrica)
Selo Cifra Club: esta cifra foi revisada para atender aos critérios oficiais da nossa Equipe de Qualidade.
tono: D
E |----------------------------|
B |----------------------------|
G |----------------------------|
D |-----4---2------------------|
A |-------------5---4----------|
E |-2-2---2---2---2---0-3p0-2--|

E |----------------------------|
B |----------------------------|
G |----------------------------|
D |----------------------------|
A |----------------------------|
E |-2-2---------------0-330-2--|

E |--------------------------------------|
B |--------------------------------------|
G |--------------------------------------|
D |--------------------------------------|
A |-2-444-444-444-444-444-444-444---5----|
E |-2-222-222-222-222-222-222-222-0-3-0--|

E |----------------------------------------------|
B |----------------------------------------------|
G |----------------------------------------------|
D |-2-4-------(4)--------2-4-------(4)-----------|
A |-0-2-------(2)--------0-2-------(2)--------2--|
E |-------------------------------------------0--|

E |----------------------------------------------|
B |----------------------------------------------|
G |------------x-x-4-2-0-2--------------4-2-7\4--|
D |------------x-x-4--------------------4---5\2--|
A |----------------------------------------------|
E |----------------------------------------------|

E |------------------------------------------|
B |------------------------------------------|
G |------------------------------------------|
D |------------------------------------------|
A |-2-444-444-444-444-444-444-444---5---4/5--|
E |-2-222-222-222-222-222-222-222-0-3-0-2/3--|

E |---------------------------------------------------------------|
B |---------------------------------------------------------------|
G |---------------------------------------------------------------|
D |-6---6---6---6--6--6-/7--7-------------------------------------|
A |-4---4---4---4--4--4-/5--5--2----------(2)------------------\--|
E |----------------------------0----------(0)------------------\--|

E |----------------------------------------------|
B |----------------------------------------------|
G |----------------------------------------------|
D |-2-4-------(4)--------2-4-------(4)-----------|
A |-0-2-------(2)--------0-2-------(2)--------2--|
E |-------------------------------------------0--|

E |----------------------------------------------|
B |----------------------------------------------|
G |------------x-x/7/5/3-4-------------/7/5/3-4--|
D |------------x-x/6/4/2-4-------------/6/4/2-2--|
A |----------------------------------------------|
E |----------------------------------------------|

E |----------------------------------|
B |----------------------------------|
G |----2-----2----2-----2-----2----2-|
D |-4--2--4--2--4-2--4--2--4--2--4-2-|
A |-2-----2-----2----2-----2-----2---|
E |----------------------------------|

E |-----------------------------------|
B |-----------------------------------|
G |-----------------------------------|
D |-----------------------------------|
A |-4---------------------------------|
E |-2-222-222-222-222-222-222-222-222-|

E |---------------------------------------------------------------|
B |---------------------------------------------------------------|
G |---------------------------------------------------------------|
D |-6---6---6---6--6--6-/7--7-------------------------------------|
A |-4---4---4---4--4--4-/5--5--2----------(2)-------------\----\--|
E |----------------------------0----------(0)--------------\----\-|

E |-------------------------------------|
B |-------------------------------------|
G |-------------------------------------|
D |-------------------------------------|
A |-4-4-4-4-4-4-4-4-4-4-4-4-4-4---7\5\--|
E |-2-2-2-2-2-2-2-2-2-2-2-2-2-2-0-5\3\--|

E |----------------------------------------------------------------|
B |----------------------------------------------------------------|
G |----------------------------------------------------------------|
D |-7-/9-------(9)-------9--------7-/9-------(9)-------9-\7-\6-----|
A |-5-/7-------(7)-------7--------5-/7-------(7)-------7-\5-\4--2--|
E |-------------------------------------------------------------0--|

E |--------------------------------------|
B |--------------------------------------|
G |--------------------------------------|
D |--------------------------------------|
A |-2-444-444-444-444-444-444-444---5----|
E |-2-222-222-222-222-222-222-222-0-3-0--|

E |--------------------------------------|
B |-7-------------9----------------------|
G |-9b------------11b--------------------|
D |--------------------------------------|
A |--------------------------------------|
E |--------------------------------------|

E |--------14--------------16------------|
B |--------17b-------------19b-----------|
G |--------------------------------------|
D |--------------------------------------|
A |--------------------------------------|
E |--------------------------------------|

E |--------------------------------------|
B |--------------------------------------|
G |--------------------------------------|
D |--------------------------------------|
A |-2-444-444-444-444-444-444-444---5----|
E |-2-222-222-222-222-222-222-222-0-3-0--|

E |--------------------------------------|
B |-10------------12---------------------|
G |-12b-----------14b--------------------|
D |--------------------------------------|
A |--------------------------------------|
E |--------------------------------------|

E |--------17-----19-------19------------|
B |--------20b-------------22b-----------|
G |--------------------------------------|
D |--------------------------------------|
A |--------------------------------------|
E |--------------------------------------|

    C#                D     E
E |---------------------------------|
B |---------------------------------|
G |---------------------------------|
D |----3--4--6--4--3-----4--6--(6)--|
A |-4-----------------5-------------|
E |---------------------------------|

E |--------------------------|
B |--------------------------|
G |-----6-\4-----------------|
D |-----4-\2--7-\6-----------|
A |-4-4-------5-\4----5---4--|
E |-2-2-------------0-3-0-2--|

E |------------|
B |------------|
G |------------|
D |------------|
A |---5---4-4--|
E |-0-3-0-2-2--|

Otros videos de esta canción
    40 exhibiciones
      • ½ Tono
      • A
      • Bb
      • B
      • C
      • Db
      • D
      • Eb
      • E
      • F
      • F#
      • G
      • Ab
    • Agregar a la lista

    Afinação da cifra

    Afinador online

      Ops (: Contenido disponible solo en portugués.
      OK