Cifra Club

Fisherman's Blues

The Waterboys

Cifrado: Principal (guitarra y guitarra eléctrica)
Selo Cifra Club: esta cifra foi revisada para atender aos critérios oficiais da nossa Equipe de Qualidade.
tono: C
Intro: G

e|---5-----------12------------------|
B|---6-----------10------------------|
G|---5-----------10------------------|
D|-------------------------------------|
A|-------------------------------------|
E|-------------------------------------|

e|-----12--12p11--8-8--8-8-9-12--12-12-13--15----15---17-15-13---|
B|-------------------------------------------------------------------------------------|
G|-------------------------------------------------------------------------------------|
D|-------------------------------------------------------------------------------------|
A|-------------------------------------------------------------------------------------|
E|------------------------------------------------------------------------------------|

G
I wish i was a fisherman
F
Tumblin' on the seas
Am
Far away from dry land
         C
And it's bitter memories

G
Castin' out my sweet line
F
With abandonment and love
Am
No ceiling bearin' down on me
         C
Save the starry sky above
                 G
With light in my head
               F      Am   C
With you in my arms

  G
I wish i was the brakeman
     F
On a hurtlin fevered train
Am
Crashin head long into the heartland
       C
Like a cannon in the rain

         G
With the feelin of the sleepers
        F
And the burnin of the coal
Am
Countin the towns flashin by
      C
And a night that's full of soul
                 G
With light in my head
               F      Am   C
With you in my arms

      G
And i know i will be loosened
         F
From the bonds that hold me fast
        Am
And the chains all around me
     C
Will fall away at last

    G
And on that grand and fateful day
       F
I will take thee in my hand
       Am
I will ride on a train
       C
I will be the fisherman
                 G
With light in my head
               F      Am   C
With you in my arms

                 G
With light in my head
               F      Am   C
With you in my arms

            G      F  Am   C
Light in my head

                 G
With light in my head
               F      Am   C
With you in my arms
Otros videos de esta canción
    4.575 exhibiciones
      • ½ Tono
      • A
      • Bb
      • B
      • C
      • Db
      • D
      • Eb
      • E
      • F
      • F#
      • G
      • Ab
    • Agregar a la lista

    Afinação da cifra

    Afinador online

      Ops (: Contenido disponible solo en portugués.
      OK