Cifra Club

Nobody Move Nobody Get Hurt

We Are Scientists

Cifrado: Principal (guitarra y guitarra eléctrica)
Selo Cifra Club: esta cifra foi revisada para atender aos critérios oficiais da nossa Equipe de Qualidade.
tono: F#
This is a new band i discovered and i was disappointed not to find ANY tabs on here so heres the first!

Tabbed by: Rikki
Email:*


i think this mostly sounds right, may be a touch iffy in the solo but meh its a solo, 
me know of any corrections. ta ta for now

Tuning: Standard

Verse Riff
e|---------------------------------------------------------------------------|
B|---------------------------------------------------------------------------|
G|---------------------------------------------------------------------------|
D|-------9-9--11-11----------------------------------------------------------|
A|11-11--------------9-9-----------------------------------------------------|
E|---------------------------------------------------------------------------|
repeated however many times until just before chorus, last time plays
e|---------------------------------------------------------------------------|
B|---------------------------------------------------------------------------|
G|---------------------------------------------------------------------------|
D|-------9-9--11-11----------------------------------------------------------|
A|11-11--------------8-8-----------------------------------------------------|
E|---------------------------------------------------------------------------|
Chorus
e|---------------------------------------------------------------------------|
B|---------------------------------------------------------------------------|
G|---------------------------------------------------------------------------|
D|---------------------------------------------------------------------------|
A|---------------------------------------------------------------------------|
E|7-7-7-7-7-7-7-7-9-9-9-9-9-9-9-9--------------------------------------------|
(X2) then
e|---------------------------------------------------------------------------|
B|---------------------------------------------------------------------------|
G|---------------------------------------------------------------------------|
D|---------------------------------------------------------------------------|
A|---------------------------------------------------------------------------|
E|7-7-7-7-7-7-7-7-9-9-9-9-9-9-9-9-11-11-11-11-11-11-11-11--------------------|

e|---------------------------------------------------------------------------|
B|---------------------------------------------------------------------------|
G|(8-8-8-8-8-8-8-8)----------------------------------------------------------|
D|-9-9-9-9-9-9-9-9--11-11-11-11-11-11-11-11----------------------------------|
A|-9-9-9-9-9-9-9-9--11-11-11-11-11-11-11-11----------------------------------|
E|-7-7-7-7-7-7-7-7--9--9--9--9--9--9--9--9-----------------------------------|
(X2) then
e|--------------------------------------------------------------------------------------------|
B|--------------------------------------------------------------------------------------------|
G|(8-8-8-8-8-8-8-8)------------------------(12-12-12-12-12-12-12-12-12-12-12-12-12-12-12-12)--|
D|-9-9-9-9-9-9-9-9--11-11-11-11-11-11-11-11-13-13-13-13-13-13-13-13-13-13-13-13-13-13-13-13---|
A|-9-9-9-9-9-9-9-9--11-11-11-11-11-11-11-11-13-13-13-13-13-13-13-13-13-13-13-13-13-13-13-13---|
E|-7-7-7-7-7-7-7-7--9--9--9--9--9--9--9--9--11-11-11-11-11-11-11-11-11-11-11-11-11-11-11-11---|

(last chord may be played for longer just play for however long it goes on for)

Then repeat verse / chorus however many times until Solo:

*verging on tremolo*

e|---------------------------------------------------------------------------|
B|-7-7-7-7-7-7-7-h9----------------------------------------------------------|
G|---------------------------------------------------------------------------|
D|---------------------------------------------------------------------------|
A|---------------------------------------------------------------------------|
E|---------------------------------------------------------------------------|
(x6) then
e|---------------------------------------------------------------------------|
B|-11-11-11-11-12-12-12-12-16-16-16-16-16-16-16-16---------------------------|
G|---------------------------------------------------------------------------|
D|---------------------------------------------------------------------------|
A|---------------------------------------------------------------------------|
E|---------------------------------------------------------------------------|
pretty much tremolo now..
e|---------------------------------------------------------------------------|
B|-12-12-12-12-9-9-9-9-11-11-11-11-7-7-7-7-----------------------------------|
G|---------------------------------------------------------------------------|
D|---------------------------------------------------------------------------|
A|---------------------------------------------------------------------------|
E|---------------------------------------------------------------------------|
(x2)
e|--------------------------------------------------------------------------------------|
B|-14-14-14-14-12-12-12-12-11-11-11-11-7-7-7-7/16-16-16-16-16-16-16-16-b16-b16-b16-b16--|
G|--------------------------------------------------------------------------------------|
D|--------------------------------------------------------------------------------------|
A|--------------------------------------------------------------------------------------|
E|--------------------------------------------------------------------------------------|

Then back to chorus chords and then youre done!


| /  slide up
| \  slide down
| h  hammer-on
| p  pull-off
| ~  vibrato
| +  harmonic
| x  Mute note
===============================================================================
Otros videos de esta canción
    40 exhibiciones
      • ½ Tono
      • A
      • Bb
      • B
      • C
      • Db
      • D
      • Eb
      • E
      • F
      • F#
      • G
      • Ab
    • Agregar a la lista

    Afinação da cifra

    Afinador online

      Ops (: Contenido disponible solo en portugués.
      OK