Cifra Club

Skyway Avenue

We The Kings

Cifrado: Principal (guitarra y guitarra eléctrica)
tono: F#
. [palm mute]
p [pull off]
h [hammer-on]


Intro:
----------------------------------------------------------------------------|
----------------------------------------------------------------------------|
------11-11----11----11----10-10-10-10------11-11-----11----11--------------|
------11-11----11----11----11-11-11-11------11-11-----11----11--------------|
--9-9--------9-----9-----9--------------9-9-------9-9-----9-----------------|
----------------------------------------------------------------------------|
  . .        .     .     .              . .       . .     .

Intro/Post-Chorus
-----------------------------------------------------------------------------|
----11h-12p-11-------14--------------11h-12p-11-------14---------------------|
---------------13-11----11-10-11----------------13-11----11-10---------------|x2}
-----------------------------------------------------------------------------|
-----------------------------------------------------------------------------|
-----------------------------------------------------------------------------|


Verse
'she said lets change our luck...'
-------------------------------|---------------------------------------------|
-------------------------------|---------------------------------------------|
-------------------------------|-----11-11--11---10-10-10--------------------|
---4-{x16}-----------6-{x8}----|-----11-11--11---11-11-11--------------------|
---2--------4-{x8}---4---------|---------------------------------------------|
------------2------------------|---------------------------------------------|


Pre-Chorus                      Chorus
                                'Cuz if you jump i will jump too...'
-------|-------|-------|-------|--------------------------------------------|
-------|-------|-------|-------|--------------------------------------------|
-------|-------|-------|-------|--------------------------------------------|
----6--|--4-6--|----6--|--4-6--|-----------6-{x8}--8-{x8}--4-{x8}-----------|
--4-4--|--2-4--|--4-4--|--2-4--|---4-{x8}--4-------6-------2----------------|
--2----|-------|--2----|-------|---2----------------------------------------|

----------------------------------------------------------------------------|
----------------------------------------------------------------------------|
----------------------------------------------------------------------------|
----------6-{x8}--8-{x8}--4-{x8}---------------6-{x6}--8-{x6}--4-{x6}-------|
--4-{x8}--4-------6-------2------------4-{x6}--4-------6-------2------------|
--2------------------------------------2------------------------------------|


back to verse
then play through


Post-Chorus
----------------------------------------------------------------------------|
----------------------------------------------------------------------------|
----------------------------------------------------------------------------|
--------------------------4444-4444--6--------------------------------------|
--6666-6666-6666-6666-----2222-2222--4--------------------------------------|
--4444-4444-4444-4444-------------------------------------------------------|

bridge
----------------------------------------------------------------------------|
----------------------------------------------------------------------------|
--8-{x16}--4-{x16}-----------6-{x16}----------------------------------------|
--6--------4--------4-{x16}--6----------------------------------------------|
--6--------2--------4--------4----------------------------------------------|
--------------------2-------------------------------------------------------|

go back to intro/post chorus

then to chorus 'til song fades out.
Composición de Dave Katz / Sam Hollander / Travis Clark
165 vistas
    • ½ Tono
    • A
    • Bb
    • B
    • C
    • Db
    • D
    • Eb
    • E
    • F
    • F#
    • G
    • Ab
  • Agregar a la lista

    0 comentarios

    Ver todos los comentarios

    ¿Lograste tocar?

    0 Tocaron 0 Aún no

    ¡Graba un video tocando Skyway Avenue y envíanoslo!

    00:00 / 00:00
    Outros vídeos desta música
    Repetir Calidad Automático
    Outros vídeos desta música
    00:00 / 00:00
    Automático
    OK