Cifra Club

Where I Belong (feat. Simple Plan & State Champs)

We The Kings

Cifrado: Principal (guitarra y guitarra eléctrica)
tono: G
[Intro] E
 
E|----------------------------------------------------|
B|----------------------------------------------------|
G|-9--9-8/9-------9-9--10/13--------------------------|
D|----------------------------------------------------|
A|-7--7-6/7-------7-7--9/11---------------------------|
E|-0----------0-0-------------------------------------|

E|----------------------------------------------------|
B|----------------------------------------------------|
G|-9--9-8/9-------9-9--13/14/16-----------------------|
D|----------------------------------------------------|
A|-7--7-6/7-------7-7--11/12/14-----------------------|
E|-0----------0-0-------------------------------------|
 
[Primeira Parte]

E5
 I'm looking in the rearview mirror

 Everything looks the same
A5
 There's nothing but broken streetlights
F#5             A5         E5
 And I'm just trying to escape

 I'm waiting on a distant feeling

 I'm waiting for things to chance
A5
 It's getting hard to ride on empty
F#5             A5          B
 But maybe I'm not so far away
           A9
'Cause it feels like home
  
[Refrão]

E5
 I found a reason
                          A5
And suddenly I'm not so alone

I'm finally breathing
                       B5 C#5
Like I never could on my  own
                                  B5
Start the countdown, let's get it on
                             A5
Scream our lungs out to our favorite song
                 B5           E5
'Cause this is where I belong

This is where I belong
 
( E )
 
E|----------------------------------------------------|
B|----------------------------------------------------|
G|-9--9-8/9-------9-9--10/13--------------------------|
D|----------------------------------------------------|
A|-7--7-6/7-------7-7--9/11---------------------------|
E|-0----------0-0-------------------------------------|

E|----------------------------------------------------|
B|----------------------------------------------------|
G|-9--9-8/9-------9-9--13/14/16-----------------------|
D|----------------------------------------------------|
A|-7--7-6/7-------7-7--11/12/14-----------------------|
E|-0----------0-0-------------------------------------|
 
[Segunda Parte]

E5
 I can tell you just don't get it

 And that you'll never understand
A5
 I'm sorry that I can't be perfect
F#5            A5           E5
 But I'm not changing who I am

 Maybe there's no destination

 Maybe I'm gonna make mistakes
A5
 Let you in on one of my secrets
F#5                 A5            B
 I'm still just as lost as yesterday
        A9
But it feels like home
 
[Refrão]

E5
 I found a reason
                          A5
And suddenly I'm not so alone

I'm finally breathing
                       B5 C#5
Like I never could on my  own
                                  B5
Start the countdown, let's get it on
                             A5
Scream our lungs out to our favorite song
                 B5           E5
'Cause this is where I belong

This is where I belong

[Ponte]

C#5
 Look past the warning signs
A5
 The same ones that told me
        B5
"Yeah, you can't turn back and run
         A
Play it safe before you come undone"
C#5
 If you saw through my eyes
A5
 This view is worth it
         B5
Can't believe me when I say

There's no place in this world I'd rather be
 
[Refrão]

E5
 I found a reason
                          A5
And suddenly I'm not so alone

I'm finally breathing
                       B5 C#5
Like I never could on my  own
                                  B5
Start the countdown, let's get it on
                             A5
Scream our lungs out to our favorite song
                 B5           E5
'Cause this is where I belong

This is where I belong

E5
 I found a reason (I found a reason)
                          A5
And suddenly I'm not so alone

I'm finally breathing (I'm finally breathing)
                       B5 C#5
Like I never could on my  own
                                  B5
Start the countdown, let's get it on
                             A5
Scream our lungs out to our favorite song (favorite song)
                 B5       E5
'Cause this is where I belong

( E )
 
E|----------------------------------------------------|
B|----------------------------------------------------|
G|-9--9-8/9-------9-9--10/13--------------------------|
D|----------------------------------------------------|
A|-7--7-6/7-------7-7--9/11---------------------------|
E|-0----------0-0-------------------------------------|

E|----------------------------------------------------|
B|----------------------------------------------------|
G|-9--9-8/9-------9-9--13/14/16-----------------------|
D|----------------------------------------------------|
A|-7--7-6/7-------7-7--11/12/14-----------------------|
E|-0----------0-0-------------------------------------|
 
                          E
'Cause this is where I belong
Compositor não encontrado.
Colaboración y revisión:
  • Getúlio Vasconcelos
    • ½ Tono
    • A
    • Bb
    • B
    • C
    • Db
    • D
    • Eb
    • E
    • F
    • F#
    • G
    • Ab
  • Agregar a la lista

    0 comentarios

    Ver todos los comentarios

    ¿Lograste tocar?

    0 Tocaron 0 Aún no

    ¡Graba un video tocando Where I Belong (feat. Simple Plan & State Champs) y envíanoslo!

    00:00 / 00:00
    Outros vídeos desta música
    Repetir Calidad Automático
    Outros vídeos desta música
    00:00 / 00:00
    Automático
    OK