Cifra Club

Jamie

Weezer

Tablatura: Principal (guitarra)
Tom: F#
-Intro- (acoustic)

F#   C#    F#    C#

then repeat the above with distortion... drums and bass enter here as well

-Verse 1-

F#   C#   F#             C#       F#
Jay  hee  may  watchoo   doin     now

         C#     F#    C#
Watchoo  doin   now   girl

F#      C#            F#              C#            F#
Please  please  tell  me  cause  I    need    to    know

   C#         F#      C#
I  need  to   know  now

-Pre chorous-

F#         C#           D#m        B                 F#
When I was down came to me and promised you'd always be

F#    C#              D#m          B              F#
by my side now you're gone and I'm waiting patiently

F#    C#    F#         C#
Jay   hee   may      I want you to know

-Guitar Fill- (lasts 1 bar = 4 counts) (this looks more difficult than it 
is)

e----------------------------------------------------4-------2--
B----------------------------------------------------4-------2--
G--6--/8--8--8--8-------3----------4----4---4--4-----4-------3--
D----------------------------------------------------6-------4--
A--4--/6--6--6--6-------1----------2----2---2--2-----6-------4--
E----------------------------------------------------4-------2--

   1   e and a  2   e  and   a  3  e   and  a  4  e  and  a  1

-Chorous-

F#      Bbm     D#m        C#              B
Jamie   Jamie   I'm   so   glad   you're   mine

F#          C#            Bbm   B
We'll be  together a long time

F#      C#      \___  repeats
Hoo hoo hoo!!   /     4 times

-verse 2-

F#      C#  (repeating)
Jamie,
Whatchoo doing now?   ("Who's faxing you now?" in acoustic version)

Who's dialing your car phone?

Please please be true

You know that I trust you

To do that which you must do

-Pre chorous-

F#         C#           D#m        B                 F#
When I was down came to me and promised you'd always be

F#    C#              D#m          B              F#
by my side now you're gone and I'm waiting patiently

F#    C#    F#         C#
Jay   hee   may      I want you to know

-Guitar Fill-

-Chorous-

F#      Bbm     D#m        C#              B
Jamie   Jamie   I'm   so   glad   you're   mine

F#          C#            Bbm   B
We'll be  together a long time

F#             Bbm            D#m         C#      B
You've got the Beach Boys and your firm's got the stones

    F#         C#              Bbm   B
But I know you won't leave me alone

-Fill-

F#           C#    D#m             B      ------\
Sometimes it seems you're not with me            \
                                                  \___ Repeats
F#          C#        F#          C#              /
It hurts me so much   It hurts me so much _______/


-Guitar solo- (rhythm guitar plays F# and C# repeatedly)

e--/5-8-6-6-5-5-------------------------------------------------
B--------------6-8-6-10-10-8-6-8-6-10-6--------6----------------
G--------------------------------------7-5-5-7------------------
D---------------------------------------------------------------
A---------------------------------------------------------------
E---------------------------------------------------------------

That's the first half of the solo, the basic melody. The second half
is no fun unless you just make it up on the fly.

-Pre chorous-

F#          C#             D#m           B
You are the most you're so rad you're so fresh and I'm so

F#        C#             D#m          B                F#
Glad I am yours, you are mine show me where and I will sign

F#         C#           D#m        B                 F#
When I was down came to me and promised you'd always be

F#    C#              D#m          B
by my side now you're gone and I'm waiting waiting

-Chorous-

F#      Bbm     D#m        C#              B
Jamie   Jamie   I'm   so   glad   you're   mine

F#          C#            Bbm   B
We'll be  together a long time

F#       Bbm       D#m     C#      B
Jamie, believe me, I won't let you down

       F#          C#             Bbm   B
'cause You are the best lawyer in town

-Fill-

F#           C#    D#m             B      ------\
Sometimes it seems you're not with me            \
                                                  \___ Repeats
F#          C#        F#          C#              /
It hurts me so much   It hurts me so much _______/

F#        C#       F#        C#
I love ya so much, I love ya so......

-Guitar fill-

F#
much

F#      C#      \___  repeats
Hoo hoo hoo!!   /     2 times

-Guitar fill-


*Chords*

E----2-------4-------6-------2--------1------------------------------
B----2-------6-------7-------4--------2------------------------------
G----3-------6-------8-------4--------3------------------------------
D----4-------6-------8-------4--------3------------------------------
A----4-------4-------6-------2--------1------------------------------
E----2--------------------------------------------------------------
    F#      C#      D#m      B       Bbm
reproducciones 65
Acordes para:
    Composição: Rivers Cuomo Colaboración y revision:
    • Luiz Bastos

    0 comentarios

    mostrar más comentarios

    ¿Conseguiste tocar?

    0 tocaron 0 aún no

    ¡Graba un vídeo tocando Jamie y envianoslo!

    00:00 / 00:00
    outros vídeos desta música
    repetir qualidade Automático
    Outros vídeos desta música
    00:00 / 00:00
    Automático
    OK