Cifra Club

Hotel Rio

Scott Weiland

Cifrado: Principal (guitarra y guitarra eléctrica)
Selo Cifra Club: esta cifra foi revisada para atender aos critérios oficiais da nossa Equipe de Qualidade.
tono: A
GI
E|---------------------------------------------------------------------------|
B|---------------------------------------------------------------------------|
G|---11---11-11-11-11----9---9-9-9-9-----7--7-7-7-7--------------------------|
D|---11---11-11-11-11----9---9-9-9-9-----7--7-7-7-7-----7---7-7-7-7----------| x2
A|-- 9----9--9--9--9-----7---7-7-7-7-----5--5-5-5-5-----7---7-7-7-7----------|
E|-x-------------------x----------------x-------------x-5---5-5-5-5----------|

GII 
E|------------9---------------9---------------9------------------------------|
B|-------10-10--10-----10-10----10------10-10---10--10-10-12-10--------------|
G|-11-11------------9-9-------------7-7--------------------------------------|
D|---------------------------------------------------------------------------|
A|---------------------------------------------------------------------------|
E|---------------------------------------------------------------------------|


[Verse]

E|---------------------------------------------------------------------------|
B|---------------------------------------------------------------------------|
G|---11---11-11-11-11----9---9-9-9-9-----7--7-7-7-7--------------------------|
D|---11---11-11-11-11----9---9-9-9-9-----7--7-7-7-7-----7---7-7-7-7----------| x4
A|-- 9----9--9--9--9-----7---7-7-7-7-----5--5-5-5-5-----7---7-7-7-7----------|
E|-x-------------------x----------------x-------------x-5---5-5-5-5----------|
Otros videos de esta canción
    7 exhibiciones
      • ½ Tono
      • A
      • Bb
      • B
      • C
      • Db
      • D
      • Eb
      • E
      • F
      • F#
      • G
      • Ab
    • Agregar a la lista

    Afinação da cifra

    Afinador online

      Ops (: Contenido disponible solo en portugués.
      OK