Cifra Club

Opposite Octave Reaction

Scott Weiland

Cifrado: Principal (guitarra y guitarra eléctrica)
Selo Cifra Club: esta cifra foi revisada para atender aos critérios oficiais da nossa Equipe de Qualidade.
tono: D
[Intro]
E|---------------|
B|---------------|
G|---------------|
D|-7-7/9-9-9-9-9-|
A|-7-7/9-9-9-9-9-| 
E|-5-5/7-7-7-7-7-|

[Verse]
E|---|---|---|---|
B|---|---|---|---|
G|---|---|---|---|
D|-2-|-2-|-4-|-4-|
A|-2-|-2-|-4-|-4-| x2
E|-0-|-0-|-2-|-2-|


[Chorus]
E|---------------|---------------|---------------|-------------|
B|---------------|---------------|---------------|-------------|
G|---------------|---------------|---------------|-------------|
D|-7-7-7-4-2-4-2-|-7-7-7-4-2-4-2-|-7/9-9-9-9-9-7-|-7-7-9-9-9-9-|
A|-7-7-7-4-2-4-2-|-7-7-7-4-2-4-2-|-7/9-9-9-9-9-7-|-7-7-9-9-9-9-|
E|-5-5-5-2-0-2-0-|-5-5-5-2-0-2-0-|-5/7-7-7-7-7-5-|-5/7-7-7-7-7-|

E|---------------|---------------|---------------|--------------|--------------|-------------|
B|---------------|---------------|---------------|--------------|--------------|-------------|
G|---------------|---------------|---------------|--------------|--------------|-------------|
D|-7-7-7-4-2-4-2-|-7-7-7-4-2-4-2-|-7/9-9-9-9-9-7-|-7-7-9-9-9-9-7|-7/9-9-9-9-9-7|-7/9-9-9-9-9-|
A|-7-7-7-4-2-4-2-|-7-7-7-4-2-4-2-|-7/9-9-9-9-9-7-|-7-7-9-9-9-9-7|-7/9-9-9-9-9-7|-7/9-9-9-9-9-|
E|-5-5-5-2-0-2-0-|-5-5-5-2-0-2-0-|-5/7-7-7-7-7-5-|-5/7-7-7-7-7-5|-5/7-7-7-7-7-5|-5/7-7-7-7-7-|

[Break]
E|---|---|---|---|
B|---|---|---|---|
G|---|---|---|---|
D|-2-|-2-|-4-|-4-|
A|-2-|-2-|-4-|-4-| x2
E|-0-|-0-|-2-|-2-|

[Verse]
E|---|---|---|---|
B|---|---|---|---|
G|---|---|---|---|
D|-2-|-2-|-4-|-4-|
A|-2-|-2-|-4-|-4-| x2
E|-0-|-0-|-2-|-2-|

[Chorus]
E|---------------|---------------|---------------|-------------|
B|---------------|---------------|---------------|-------------|
G|---------------|---------------|---------------|-------------|
D|-7-7-7-4-2-4-2-|-7-7-7-4-2-4-2-|-7/9-9-9-9-9-7-|-7-7-9-9-9-9-|
A|-7-7-7-4-2-4-2-|-7-7-7-4-2-4-2-|-7/9-9-9-9-9-7-|-7-7-9-9-9-9-|
E|-5-5-5-2-0-2-0-|-5-5-5-2-0-2-0-|-5/7-7-7-7-7-5-|-5/7-7-7-7-7-|

E|---------------|---------------|---------------|--------------|--------------|-------------|
B|---------------|---------------|---------------|--------------|--------------|-------------|
G|---------------|---------------|---------------|--------------|--------------|-------------|
D|-7-7-7-4-2-4-2-|-7-7-7-4-2-4-2-|-7/9-9-9-9-9-7-|-7-7-9-9-9-9-7|-7/9-9-9-9-9-7|-7/9-9-9-9-9-|
A|-7-7-7-4-2-4-2-|-7-7-7-4-2-4-2-|-7/9-9-9-9-9-7-|-7-7-9-9-9-9-7|-7/9-9-9-9-9-7|-7/9-9-9-9-9-|
E|-5-5-5-2-0-2-0-|-5-5-5-2-0-2-0-|-5/7-7-7-7-7-5-|-5/7-7-7-7-7-5|-5/7-7-7-7-7-5|-5/7-7-7-7-7-|

[Bridge]
E|-------------|---------|-------------|-------------|
B|-------------|---------|-------------|-------------|
G|-8-8-8-8-8-9-|-9-8-6---|-------------|-------------|
D|-8-8-8-8-8-9-|-9-8-6-9-|-9-9-9-9-9-9-|-9-9-9-9-9-9-|
A|-6-6-6-6-6-7-|-7-6-4-9-|-9-9-9-9-9-9-|-9-9-9-9-9-9-|
E|-x-x-x-x-x-x-|-x-x-x-7-|-7-7-7-7-7-7-|-7-7-7-7-7-7-|

E|-------------|-------|
B|-------------|-------|
G|-8-8-8-8-8-9-|-9-8-6-|
D|-8-8-8-8-8-9-|-9-8-6-|
A|-6-6-6-6-6-7-|-7-6-4-|
E|-x-x-x-x-x-x-|-x-x-x-|

[Verse]
E|---|---|---|---|
B|---|---|---|---|
G|---|---|---|---|
D|-2-|-2-|-4-|-4-|
A|-2-|-2-|-4-|-4-| x4
E|-0-|-0-|-2-|-2-|

[Chorus]
E|---------------|---------------|---------------|-------------|
B|---------------|---------------|---------------|-------------|
G|---------------|---------------|---------------|-------------|
D|-7-7-7-4-2-4-2-|-7-7-7-4-2-4-2-|-7/9-9-9-9-9-7-|-7-7-9-9-9-9-|
A|-7-7-7-4-2-4-2-|-7-7-7-4-2-4-2-|-7/9-9-9-9-9-7-|-7-7-9-9-9-9-| x3
E|-5-5-5-2-0-2-0-|-5-5-5-2-0-2-0-|-5/7-7-7-7-7-5-|-5/7-7-7-7-7-|

E|---------------|---------------|---------------|--------------|--------------|-------------|
B|---------------|---------------|---------------|--------------|--------------|-------------|
G|---------------|---------------|---------------|--------------|--------------|-------------|
D|-7-7-7-4-2-4-2-|-7-7-7-4-2-4-2-|-7/9-9-9-9-9-7-|-7-7-9-9-9-9-7|-7/9-9-9-9-9-7|-7/9-9-9-9-9-|
A|-7-7-7-4-2-4-2-|-7-7-7-4-2-4-2-|-7/9-9-9-9-9-7-|-7-7-9-9-9-9-7|-7/9-9-9-9-9-7|-7/9-9-9-9-9-|
E|-5-5-5-2-0-2-0-|-5-5-5-2-0-2-0-|-5/7-7-7-7-7-5-|-5/7-7-7-7-7-5|-5/7-7-7-7-7-5|-5/7-7-7-7-7-|

[Outro]
E|---------------|
B|---------------|
G|---------------|
D|-7-7/9-9-9-9-9-|
A|-7-7/9-9-9-9-9-| x8 until  
E|-5-5/7-7-7-7-7-|    fade
Otros videos de esta canción
    5 exhibiciones
      • ½ Tono
      • A
      • Bb
      • B
      • C
      • Db
      • D
      • Eb
      • E
      • F
      • F#
      • G
      • Ab
    • Agregar a la lista

    Afinação da cifra

    Afinador online

      Ops (: Contenido disponible solo en portugués.
      OK