Cifra Club

CNR

"Weird Al" Yankovic

Cifrado: Principal (guitarra y guitarra eléctrica)
Selo Cifra Club: esta cifra foi revisada para atender aos critérios oficiais da nossa Equipe de Qualidade.
tono: Gm
E|E|-------------------------------------------------------------------------------||
                             CNR – Weird Al Yankovic
E|E|-------------------------------------------------------------------------------||
Tabbed by: Wayward Sean
Email: scgebhart@bsu.edu

Tuning: Drop Db (eb Bb Gb Db Ab Db)

Intro :

E|-------------------|----------------|-----------------|
B|-------------------|----------------|-----------------|
G|-----9-----10p9----|-----7---8p7----|-8--x-10--x------|
D|-10-----10------10-|-8-----8-----8--|-8--x-10--x-10---|
A|-------------------|----------------|-6--x-8---x-10---|
E|-------------------|----------------|------------10---|

                                                                     2X
E|------------------------------------------------------|
B|------------------------------------------------------|
G|-------8----------------------------------------------|
D|-10----8----8--8--8/10--------------10----------------|
A|-10----6----8--8--8/10-----------6--10---8-9-8-6------|
E|-10---------8--8--8/10-----8-6-5----10----------------|

Verse:

E|-----|----------------|--------------------------------------|
B|-----|----------------|--------------------------------------|
G|-----|----------------|-------------------8--8---------------|
D|-10--|------------10--|------------10--10-8--8-8-------------|
A|-10--|---------6--10--|-8-9-8-6----10--10-6--6-8----------6--|
E|-10--|-8-6-5-6----10--|---------8--10--10------8--8-10--8----|

E|-----------------------------------|
B|-----------------------------------|
G|--------8--8-----------8--7--------|
D|-10--10-8--8-8--8-10---8--7--10----|
A|-10--10-6--6-8--8-10---6--5--10----|
E|-10--10------8--8-10---------10----|

Chorus:
                                                    2X
E|------------------------------------------------|
B|------------------------------------------------|
G|-----------------------8--8-8-------------------|
D|-10--10--10-10-8-8--8--8--8-8--8-8--8-10-10--10-|
A|-10--10--10-10-8-8--8--6--6-6--8-8--8-10-10--10-|
E|-10--10--10-10-8-8--8----------8-8--8-10-10--10-|

Verse:

E|-----|----------------|--------------------------------------|
B|-----|----------------|--------------------------------------|
G|-----|----------------|-------------------8--8---------------|
D|-10--|------------10--|------------10--10-8--8-8-------------|
A|-10--|---------6--10--|-8-9-8-6----10--10-6--6-8----------6--|
E|-10--|-8-6-5-6----10--|---------8--10--10------8--8-10--8----|

E|-----------------------------------|
B|-----------------------------------|
G|--------8--8-----------8--7--------|
D|-10--10-8--8-8--8-10---8--7--10----|
A|-10--10-6--6-8--8-10---6--5--10----|
E|-10--10------8--8-10---------10----|

Chorus:
                                                            2X
E|------------------------------------------------|
B|------------------------------------------------|
G|-----------------------8--8-8-------------------|
D|-10--10--10-10-8-8--8--8--8-8--8-8--8-10-10--10-|
A|-10--10--10-10-8-8--8--6--6-6--8-8--8-10-10--10-|
E|-10--10--10-10-8-8--8----------8-8--8-10-10--10-|

Bridge:

E|---------------------|------------------------------------------------|
B|---------------------|------------------------------------------------|
G|-10-10-10-10-8-8-8-8-|------------------------------------------------|
D|-10-10-10-10-8-8-8-8-|------------------------------------------------|
A|-8--8--8--8--6-6-6-6-|------------------------------------------------|
E|---------------------|--10-10--8-8-10-10--10-10-10-10--8-8-10-10--10--|

E|---------------------|---------------------|
B|---------------------|---------------------|
G|-10-10-10-10-8-8-8-8-|---------------------|
D|-10-10-10-10-8-8-8-8-|---------------------|
A|-8--8--8--8--6-6-6-6-|-/10-8-5-------------|
E|---------------------|---------10-9-5-3-0--|

Verse:

E|-----|-----------------|--------------------------------------------------|
B|-----|-----------------|--------------------------------------------------|
G|-----|-----------------|--------------------8--8--------------------------|
D|-10--|-------------10--|-------------10--10-8--8-8-------------10--10--10-|
A|-10--|----------6--10--|----------6--10--10-6--6-8----------6--10--10--10-|
E|-10--|--8-10--8----10--|--8-10--8----10--10------8--8-10--8----10--10--10-|

Chorus/Outro:
                                                                              3X
E|------------------------------------------------|
B|------------------------------------------------|
G|-----------------------8--8-8-------------------|
D|-10--10--10-10-8-8--8--8--8-8--8-8--8-10-10--10-|
A|-10--10--10-10-8-8--8--6--6-6--8-8--8-10-10--10-|
E|-10--10--10-10-8-8--8----------8-8--8-10-10--10-|

E|-------------------------------------|
B|-------------------------------------|
G|-----------------------8--x----------|
D|-10--10--10-10-8-8--8--8--x-8--x-10--|
A|-10--10--10-10-8-8--8--6--x-8--x-10--|
E|-10--10--10-10-8-8--8-------8--x-10--|


| /  slide up
| \  slide down
| h  hammer-on
| p  pull-off
| ~  vibrato
| +  harmonic
| x  Mute note
===============================================================================
Otros videos de esta canción
    4 exhibiciones
      • ½ Tono
      • Am
      • Bbm
      • Bm
      • Cm
      • C#m
      • Dm
      • Ebm
      • Em
      • Fm
      • F#m
      • Gm
      • G#m
    • Agregar a la lista

    Afinação da cifra

    Afinador online

      Ops (: Contenido disponible solo en portugués.
      OK