Cifra Club

Amor Transparente

Wesley Safadão

Tablatura: Principal (guitarra)
tono: A
[Intro] A9  E  Bm
        D  A9  E
   A9                  E
E|-0-0-----------------0-0------------------|
B|-0-0--------7--------0-0--------7---------|
G|-2-2--6-9-6---9-7-6--1-1--6-9-6---9-7-6---|
D|-2-2-----------------2-2------------------|
A|-0-0-----------------2-2------------------|
E|---------------------0-0------------------|
   ↓ ↑                 ↓ ↑

E|------------------------------------------|
B|-7-7-7--------------7-7-7-----------------|
G|-------9-9-7-7------------9-9--6/7-6------|
D|---------------7-7-------------------9-7--|
A|------------------------------------------|
E|------------------------------------------|

[Primeira Parte]

 A9                                    F#
Não tenho vergonha de dizer que sou maluco por você
Bm        A9                  E
É, sou maluco, deixa o mundo perceber
 A9                                        F#
Não, não sou daqueles que disfarça, que esconde o que sente
Bm           A9                   E
É, o nosso amor é verdadeiro, é transparente

[Pré-Refrão]

    A9                                     F#m
E quando eu te ligo pra saber onde você está
                      F#                Bm
Eu não quero ser seu dono nem te incomodar
                   D                        E
É que mesmo na distância eu quero estar presente
    A9                                             F#
Desculpa se eu estou te incomodando com esse meu ciúme
                     F#                  Bm
É que quando estou amando esse é meu costume
                  E               A9          E
Eu só quero proteger, cuidar do amor da gente

[Refrão]

             A9         F#m            Bm                E
Deixa eu cuidar, te vigiar, onde você for me leve com você
        A9            F#m            Bm                     E
E se você quiser me amar é só me chamar que eu chego num segundo
             A9         F#m            Bm                E
Deixa eu cuidar, te vigiar, onde você for me leve com você
        A9            F#m            Bm                     E
E se você quiser me amar é só me chamar que eu chego num segundo
     Bm                  D               A9   E
Acredite meu amor por você é o maior do mundo

( A9  E  Bm )
( D  A  E )

[Riff]

E|------------------------------------------|
B|-7-7-7------------------------------------|
G|-------9-9-7-7----------------------------|
D|---------------7-7------------------------|
A|------------------------------------------|
E|------------------------------------------|

E|------------------------------------------|
B|-7-7-7------------------------------------|
G|-------9-9-7-7-6--------------------------|
D|-----------------9-7--9/11-11\9-----------|
A|------------------------------------------|
E|------------------------------------------|

[Pré-Refrão]

    A9                                     F#m
E quando eu te ligo pra saber onde você está
                      F#                Bm
Eu não quero ser seu dono nem te incomodar
                   D                        E
É que mesmo na distância eu quero estar presente
    A9                                             F#
Desculpa se eu estou te incomodando com esse meu ciúme
                     F#                  Bm
É que quando estou amando esse é meu costume
                  E               A9          E
Eu só quero proteger, cuidar do amor da gente

[Refrão]

             A9         F#m            Bm                E
Deixa eu cuidar, te vigiar, onde você for me leve com você
        A9            F#m            Bm                     E
E se você quiser me amar é só me chamar que eu chego num segundo
             A9         F#m            Bm                E
Deixa eu cuidar, te vigiar, onde você for me leve com você
        A9            F#m            Bm                     E
E se você quiser me amar é só me chamar que eu chego num segundo
     Bm                  D        A9          E
Acredite meu amor por você é o maior do mundo

[Final] A9  E  Bm
        D  A  E
        A9  E  Bm
        D  A  E  A

E|------------------------------------------|
B|-7-7-7------------------------------------|
G|-------9-9-7-7----------------------------|
D|---------------7-7------------------------|
A|------------------------------------------|
E|------------------------------------------|

E|------------------------------------------|
B|-7-7-7------------------------------------|
G|-------9-9-7-7-6--------------------------|
D|-----------------9-7--9/11-11\9-----------|
A|------------------------------------------|
E|------------------------------------------|

E|------------------------------------------|
B|-7-7-7------------------------------------|
G|-------9-9-7-7----------------------------|
D|---------------7-7------------------------|
A|------------------------------------------|
E|------------------------------------------|

E|------------------------------------------|
B|-7-7-7------------------------------------|
G|-------9-9-7-7-6--------------------------|
D|-----------------9-7--9/11-11\9-----------|
A|------------------------------------------|
E|------------------------------------------|
Composição de Conde Macedo / Guedes Neto / Neto Barros
Colaboración y revision:
  • Thiago Almeida
143 reproducciones
    • ½ Tono
    • A
    • Bb
    • B
    • C
    • Db
    • D
    • Eb
    • E
    • F
    • F#
    • G
    • Ab
  • Adicionar à lista

    0 comentarios

    Ver todos os comentários

    ¿Conseguiste tocar?

    1 Tocaram 0 Ainda não

    Grave um vídeo tocando Amor Transparente e nos envie!

    00:00 / 00:00
    outros vídeos desta música
    repetir qualidade Automático
    Outros vídeos desta música
    00:00 / 00:00
    Automático
    OK