Cifra Club

Código Cama

Wesley Safadão

Cifrado: Principal (guitarra y guitarra eléctrica)
tono: D
[Intro] G  Gm  D
        E  G  Gm

E|------------------------------------------|
B|-5/7-7-7-7-7--7\5-3----3------------5-5/7-|
G|--------------------4----4-3--3/4-2-------|
D|------------------------------------------|
A|------------------------------------------|
E|------------------------------------------|

E|------------------------------------------|
B|-5/7-7-7-7-7--7\5-3----3-----5/7----------|
G|--------------------4----4-3--------------|
D|------------------------------------------|
A|------------------------------------------|
E|------------------------------------------|

[Primeira Parte]

D                          F#m
Avenida vazia, e sinal fechado
 Bm                             G
Meu coração destruído aqui dentro do carro
 D                                F#m
No porta lata, cerveja tá pela metade
    Bm                              G
E a outra metade, bebi com medo da saudade

[Pré-Refrão]

 Bm                           G
Só sei que a pior parte, começa agora
 D                                     A
Na despedida sem beijo, eu destravo a porta
  Bm                                   G
E eu vou descendo do carro querendo ficar
         D
Não tem como ter final feliz
                A
Cê só sabe me usar

[Refrão]

                     D
Me diz cadê seu coração
                         E
Que só bate pra me machucar
F#m        G                                      Gm
    O seu código cama, é dizer que só quer conversar
              D
Cadê seu coração
                                   E
E esse amor onde é que eu vou guardar
         G                                      Gm
Toma cuidado amor, o que cê nega outro pode me dar

              D
Cadê seu coração
                         E
Que só bate pra me machucar
F#m        G                                      Gm
    O seu código cama, é dizer que só quer conversar
              D
Cadê seu coração
                                   E
E esse amor onde é que eu vou guardar
         G                                      Gm
Toma cuidado amor, o que cê nega outro pode me dar

[Solo] G  Gm  D
       E  G  Gm

E|------------------------------------------|
B|-5/7-7-7-7-7--7\5-3----3------------5-5/7-|
G|--------------------4----4-3--3/4-2-------|
D|------------------------------------------|
A|------------------------------------------|
E|------------------------------------------|

E|------------------------------------------|
B|-5/7-7-7-7-7--7\5-3----3-----5/7----------|
G|--------------------4----4-3--------------|
D|------------------------------------------|
A|------------------------------------------|
E|------------------------------------------|

[Primeira Parte]

D                          F#m
Avenida vazia, e sinal fechado
 Bm                             G
Meu coração destruído aqui dentro do carro
 D                                F#m
No porta lata, cerveja tá pela metade
    Bm                              G
E a outra metade, bebi com medo da saudade

[Pré-Refrão]

 Bm                           G
Só sei que a pior parte, começa agora
 D                                     A
Na despedida sem beijo, eu destravo a porta
  Bm                                   G
E eu vou descendo do carro querendo ficar
         D
Não tem como ter final feliz
                A
Cê só sabe me usar

[Refrão]

                     D
Me diz cadê seu coração
                         E
Que só bate pra me machucar
F#m        G                                      Gm
    O seu código cama, é dizer que só quer conversar
              D
Cadê seu coração
                                   E
E esse amor onde é que eu vou guardar
         G                                      Gm
Toma cuidado amor, o que cê nega outro pode me dar

              D
Cadê seu coração
                         E
Que só bate pra me machucar
F#m        G                                      Gm
    O seu código cama, é dizer que só quer conversar
              D
Cadê seu coração
                                   E
E esse amor onde é que eu vou guardar
         G                                      Gm
Toma cuidado amor, o que cê nega outro pode me dar

[Final] G  Gm  D
        E  G  Gm

E|------------------------------------------|
B|-5/7-7-7-7-7--7\5-3----3------------5-5/7-|
G|--------------------4----4-3--3/4-2-------|
D|------------------------------------------|
A|------------------------------------------|
E|------------------------------------------|

E|------------------------------------------|
B|-5/7-7-7-7-7--7\5-3----3-----5/7----------|
G|--------------------4----4-3--------------|
D|------------------------------------------|
A|------------------------------------------|
E|------------------------------------------|
Composición de Gabriel Agra / Philipe Pancadinha / Thales Lessa / Victor Hugo
Colaboración y revisión:
  • Thiago Almeida
  • Netinho Martyns
35 vistas
    • ½ Tono
    • A
    • Bb
    • B
    • C
    • Db
    • D
    • Eb
    • E
    • F
    • F#
    • G
    • Ab
  • Agregar a la lista

    0 comentarios

    Ver todos los comentarios

    ¿Lograste tocar?

    1 Tocaron 0 Aún no

    ¡Graba un video tocando Código Cama y envíanoslo!

    00:00 / 00:00
    Outros vídeos desta música
    Repetir Calidad Automático
    Outros vídeos desta música
    00:00 / 00:00
    Automático
    OK