Cifra Club

Despedida (part. Zé Neto e Cristiano)

Wesley Safadão

Cifrado: Principal (guitarra y guitarra eléctrica)
tono: A
[Intro] A  E  Bm7  D

E|------------------------------------------|
B|-------------5-5/7-5----------------------|
G|-4/6~--4/6-7----------9--7-6-4-6/7--------|
D|------------------------------------------|
A|----------------------11-9-7-5-7/9--------|
E|------------------------------------------|

E|------------------------------------------|
B|------------------------------------------|
G|-9--7-6-4-2--4h6-4------------------------|
D|------------------------------------------|
A|-11-9-7-5-4-------------------------------|
E|------------------------------------------|

[Primeira Parte]
 
              A 
Eu entro no quarto 
                             E
E vejo sua mala fechada no chão
                         F#m7(11)
E no guarda roupa um vestido de solidão
        D
Doeu demais meu coração
          A 
E na geladeira 
                                  E
Um bilhete dizendo que só vai voltar
                                        F#m7(11)
Pra buscar as coisas que não deu pra levar
                            D
E se for sair, deixa a chave  

[Refrão]

           A
E na despedida
       
Como é que eu vou beijar seu rosto
                  E
Se eu já beijei sua boca

Como é que eu vou te abraçar vestida
                 F#m7
Se eu já te agarrei sem roupa
              
Como é que eu vou abrir aquela porta 
              D
E te deixar sair
                       A
Como é que eu vou dividir
                                      E
Um corpo que era inteiro, exclusivo, só pra mim

           A
E na despedida
       
Como é que eu vou beijar seu rosto
                  E
Se eu já beijei sua boca

Como é que eu vou te abraçar vestida
                 F#m7
Se eu já te agarrei sem roupa
              
Como é que eu vou abrir aquela porta 
              D
E te deixar sair
                       A
Como é que eu vou dividir
                                      E
Um corpo que era inteiro, exclusivo, só pra mim

Ainda não tô preparado pra me despedir

[Solo] A  E  Bm7  D

E|------------------------------------------|
B|-------------5-5/7-5----------------------|
G|-4/6~--4/6-7----------9--7-6-4-6/7--------|
D|------------------------------------------|
A|----------------------11-9-7-5-7/9--------|
E|------------------------------------------|

E|----------10-9-2~-------------------------|
B|------------------------------------------|
G|-9--7-6--/11-9----------------------------|
D|------------------------------------------|
A|-11-9-7-----------------------------------|
E|------------------------------------------|

[Primeira Parte]
 
              A 
Eu entro no quarto 
                             E
E vejo sua mala fechada no chão
                         F#m7(11)
E no guarda roupa um vestido de solidão
        D
Doeu demais meu coração
          A 
E na geladeira 
                                  E
Um bilhete dizendo que só vai voltar
                                        F#m7(11)
Pra buscar as coisas que não deu pra levar
                             D
E se for sair, deixa a chave   no mesmo lugar

[Refrão]

           A
E na despedida
       
Como é que eu vou beijar seu rosto
                  E
Se eu já beijei sua boca

Como é que eu vou te abraçar vestida
                 F#m7
Se eu já te agarrei sem roupa
              
Como é que eu vou abrir aquela porta 
              D
E te deixar sair
                       A
Como é que eu vou dividir
                                      E
Um corpo que era inteiro, exclusivo, só pra mim

           A
E na despedida
       
Como é que eu vou beijar seu rosto
                  E
Se eu já beijei sua boca

Como é que eu vou te abraçar vestida
                 F#m7
Se eu já te agarrei sem roupa
              
Como é que eu vou abrir aquela porta 
              D
E te deixar sair
                       A
Como é que eu vou dividir
                                      E
Um corpo que era inteiro, exclusivo, só pra mim
                                    A  D  A
Ainda não tô preparado pra me despedir
 E                                   A 
Ainda não tô preparado pra me despedir
 E                                  A
Ainda não tô preparado pra me despedir
00:00 / 00:00
Otros videos de esta canción
Repetir
Otros videos de esta canción
Composición de Samuel / Thiago / Waléria Leão
Colaboración y revisión:
  • Thiago Almeida
102 vistas
    • ½ Tono
    • A
    • Bb
    • B
    • C
    • Db
    • D
    • Eb
    • E
    • F
    • F#
    • G
    • Ab
  • Agregar a la lista

    0 comentarios

    Ver todos los comentarios

    ¿Lograste tocar?

    1 Tocaron 0 Aún no

    ¡Graba un video tocando Despedida (part. Zé Neto e Cristiano) y envíanoslo!

    00:00 / 00:00
    OK