Cifra Club

Saudade Teimosa

Wesley Safadão

Tablatura: Principal (guitarra)
tono: Em
[Intro] C9  D9  Em7

E|-----10-----------------10-12~------------|
B|--------/12--/10~---/12-------------------|
G|-/12--------------------------------------|
D|------------------------------------------|
A|------------------------------------------|
E|------------------------------------------|

[Primeira Parte]

C9
Eu já tentei tudo
 D9
Fiz cada absurdo
   Em7
E nada valeu

De nada resolveu

 C9
Te apaguei da memória
 D9
Mas a saudade teimosa
   Bm7                   Em7
Insiste em te trazer de volta

[Pré-Refrão]

              C9
Mas o que eu vou fazer
                  D9
Se eu só quero saber de você

[Refrão]

 C9
Te bloqueei, desbloqueei
 D9
Já te exclui, te adicionei
Bm                      Em7
Eu te ganhei, eu te perdi
                      C9  D9
Mas eu nunca te esqueci
                    Em7
Mas eu nunca te esqueci

 C9
Te bloqueei, desbloqueei
 D9
Já te exclui, te adicionei
Bm                      Em7
Eu te ganhei, eu te perdi
                      C9  D9
Mas eu nunca te esqueci
                    Em7
Mas eu nunca te esqueci

[Solo] C9  D9  Em7  G
       C9  D9  Em7  G

E|------------------------------------------|
B|/10-12-10~------10-12-10------------------|
G|-----------11------------11b12r11b12r11---|
D|--------------12------------------------12|
A|------------------------------------------|
E|------------------------------------------|

E|------------------------------------------|
B|-10-12-10---------------------------------|
G|----------11b12r11b12r11------------------|
D|-------------------------12-12/14\12\9----|
A|------------------------------------------|
E|------------------------------------------|

[Primeira Parte]

C9
Eu já tentei tudo
 D9
Fiz cada absurdo
   Em7
E nada valeu

De nada resolveu

 C9
Te apaguei da memória
 D9
Mas a saudade teimosa
   Bm7                   Em7
Insiste em te trazer de volta

[Pré-Refrão]

              C9
Mas o que eu vou fazer
                  D9
Se eu só quero saber de você

[Refrão]

 C9
Te bloqueei, desbloqueei
 D9
Já te exclui, te adicionei
Bm                      Em7
Eu te ganhei, eu te perdi
                      C9  D9
Mas eu nunca te esqueci
                    Em7
Mas eu nunca te esqueci

 C9
Te bloqueei, desbloqueei
 D9
Já te exclui, te adicionei
Bm                      Em7
Eu te ganhei, eu te perdi
                      C9  D9
Mas eu nunca te esqueci
                    Em7
Mas eu nunca te esqueci

[Final] C9  D9  Em7  G
        C9  D9  Em7
Composição de Renno / Graciano / Junior Gomes / Matheus Marcolino / Tiago Teg
Colaboración y revision:
  • Lucas Kappaun
186 reproducciones
    • ½ Tono
    • Am
    • Bbm
    • Bm
    • Cm
    • C#m
    • Dm
    • Ebm
    • Em
    • Fm
    • F#m
    • Gm
    • G#m
  • Adicionar à lista

    0 comentarios

    Ver todos os comentários

    ¿Conseguiste tocar?

    1 Tocaram 0 Ainda não

    Grave um vídeo tocando Saudade Teimosa e nos envie!

    00:00 / 00:00
    outros vídeos desta música
    repetir qualidade Automático
    Outros vídeos desta música
    00:00 / 00:00
    Automático
    OK