Cifra Club

Bow Down

Westside Connection

Cifrado: Principal (guitarra y guitarra eléctrica)
Selo Cifra Club: esta cifra foi revisada para atender aos critérios oficiais da nossa Equipe de Qualidade.
tono: F
E|---------------------------------------|
B|---------------------------------------|
G|---------------------------------------|
D|---------------------------------------|
A|-----1-----0---------------------5-----|
E|---------------------------0-----------|

Hook: (Let 15 Ring/Add Wammy/Wah During Bow Down Chorus)

E|-----17-----18-----17-----12------------|
B|---------------------------------15-----|
G|----------------------------------------|
D|----------------------------------------|
A|----------------------------------------|
E|----------------------------------------|
Otros videos de esta canción
    40 exhibiciones
      • ½ Tono
      • A
      • Bb
      • B
      • C
      • Db
      • D
      • Eb
      • E
      • F
      • F#
      • G
      • Ab
    • Agregar a la lista

    Afinación de cifrado

    Afinador online

      OK