Cifra Club

Wham! Rap

Wham!

Tab de bajo: Principal
[Intro]
G|------------------------------|---------------------------------|
D|-----7-5--7-------------------|---------------------------------|
A|------------------------------|----5------5---------------------| 
E|--5---------------------------|--8----8-7----7------------------|
    1  2 + 3+                      1   2+ 3   4+ 

G|------------------------------|---------------------------------|
D|-----7-5--7\------------------|---------------------------------|
A|------------------------------|----5------5---------------------| 
E|--5---------------------------|--8----8-7----7------------------|

G|------------------------------|---------------------------------|
D|-----7-5--7-------------------|---------------------------------|
A|------------------------------|----5------5---------------------| 
E|--5---------------------------|--8----8-7----7------------------|

G|------------------------------|---------------------------------|
D|-----7-5--7\------------------|---------------------------------|
A|------------------------------|----5------5---------------------| 
E|--5---------------------------|--8----8-7----7------------------|

G|------------------------------|---------------------------------|
D|-----7-5--7-------------------|---------------------------------|
A|------------------------------|----5------5---------------------| 
E|--5---------------------------|--8----8-7----7------------------|

G|------------------------------|---------------------------------|
D|-----7-5--7\------------------|---------------------------------|
A|------------------------------|----5------5---------------------| 
E|--5---------------------------|--8----8-7----7------------------|

[Verso]

G|------------------------------|---------------------------------|
D|------------------------------|---------------------------------|
A|----------------2-------------|--3---x-5-5-3-5------------------| 
E|--5---3-3-3-5-----------------|----------------3----------------|
    1 2       3 4 +                1 2 + 3     4 +  

G|------------------------------|---------------------------------|
D|------------------------------|---------------------------------|
A|----------------2-2-2---------|--3---3-3-3-5--------------------| 
E|--5---3-3-3-5-----------------|----------------3----------------|
    1 2       3 4 +                1 2 +     3 4 +

G|------------------------------|---------------------------------|
D|------------------------------|---------------------------------|
A|----------------2-------------|--3---x-5-5-3-5------------------| 
E|--5---3-3-3-5-----------------|----------------3----------------|

G|------------------------------|---------------------------------|
D|------------------------------|---------------------------------|
A|----------------2-2-2---------|--3---3-3-3-5--------------------| 
E|--5---3-3-3-5-----------------|----------------3----------------|

G|------------------------------|---------------------------------|
D|------------------------------|---------------------------------|
A|----------------2-------------|--3---x-5-5-3-5------------------| 
E|--5---3-3-3-5-----------------|----------------3----------------|

G|------------------------------|---------------------------------|
D|------------------------------|---------------------------------|
A|----------------2-2-2---------|--3---3-3-3-5--------------------| 
E|--5---3-3-3-5-----------------|----------------3----------------|

G|------------------------------|---------------------------------|
D|------------------------------|---------------------------------|
A|----------------2-------------|--3---x-5-5-3-5------------------| 
E|--5---3-3-3-5-----------------|----------------3----------------|

G|------------------------------|---------------------------------|
D|------------------------------|---------------------------------|
A|----------------2-2-2---------|--3---3-3-3-5--------------------| 
E|--5---3-3-3-5-----------------|----------------3----------------|

[Refrão]

1:06
G|------------------------------|---------------------------------|
D|------------------------------|---------------------------------|
A|----------------2-------------|--3---3-3-2-3-5------------------| 
E|--5--5--3-5---5---------------|----------------3----------------|
    1  2  + 3 4 +                  1 2 +  3    4      

G|------------------------------|---------------------------------|
D|------------------------------|---------------------------------|
A|--------------3-2-------------|--3-3--3-5-3-5-5-----------------| 
E|--5--3--5---5-----------------|-------------------3-------------|
    1  2  3 4 +                    1   2+     3 + 4 + 

G|------------------------------|---------------------------------|
D|------------------------------|---------------------------------|
A|----------------2-------------|--3---3-3-2-3-5------------------| 
E|--5--5--3-5---5---------------|----------------3----------------|

G|------------------------------|---------------------------------|
D|------------------------------|---------------------------------|
A|--------------3-2-------------|--3-3--3-5-3-5-5-----------------| 
E|--5--3--5---5-----------------|-------------------3-------------|

[Verso]

G|------------------------------|---------------------------------|
D|------------------------------|---------------------------------|
A|----------------2-------------|--3---x-5-5-3-5------------------| 
E|--5---3-3-3-5-----------------|----------------3----------------|
    1 2 +     3 4 +                1 2 + 3     4 +  

G|------------------------------|---------------------------------|
D|------------------------------|---------------------------------|
A|----------------2-2-2---------|--3---3-3-3-5--------------------| 
E|--5---3-3-3-5-----------------|----------------3----------------|
    1 2 +     3 4 +                1 2 +     3 4 +

G|------------------------------|---------------------------------|
D|------------------------------|---------------------------------|
A|----------------2-------------|--3---x-5-5-3-5------------------| 
E|--5---3-3-3-5-----------------|----------------3----------------|

G|------------------------------|---------------------------------|
D|------------------------------|---------------------------------|
A|----------------2-2-2---------|--3---3-3-3-5--------------------| 
E|--5---3-3-3-5-----------------|----------------3----------------|

[Refrão] 

G|------------------------------|---------------------------------|
D|------------------------------|---------------------------------|
A|----------------2-------------|--3---3-3-2-3-5------------------| 
E|--5--5--3-5---5---------------|----------------3----------------|
    1  2    3 4 +                  1 2 +  3    4 +     

G|------------------------------|---------------------------------|
D|------------------------------|---------------------------------|
A|--------------3-2-------------|--3-3--3-5-3-5-5-----------------| 
E|--5--3--5---5-----------------|-------------------3-------------|
    1  2  3 4 +                    1   2+     3   4 +

G|------------------------------|---------------------------------|
D|------------------------------|---------------------------------|
A|----------------2-------------|--3---3-3-2-3-5------------------| 
E|--5--5--3-5---5---------------|----------------3----------------|

G|------------------------------|---------------------------------|
D|------------------------------|---------------------------------|
A|--------------3-2-------------|--3-3--3-5-3-5-5-----------------| 
E|--5--3--5---5-----------------|-------------------3-------------|

2:15 
G|------------------------------|---------------------------------|
D|------------------------------|---------------------------------|
A|----------------2-------------|--3---3-3-2-3-5------------------| 
E|--5--5--3-5---5---------------|----------------3----------------|
    1  2  + 3 4 +                  1 2 +  3+   4 +     

G|------------------------------|---------------------------------|
D|------------------------------|---------------------------------|
A|--------------3-2-------------|--3-3--3-5-3-5-5-----------------| 
E|--5--3--5---5-----------------|-------------------3-------------|
    1  2  3 4 +                    1   2+     3 + 4 +

G|------------------------------|---------------------------------|
D|------------------------------|---------------------------------|
A|----------------2-------------|--3---3-3-2-3-5------------------| 
E|--5--5--3-5---5---------------|----------------3----------------|

G|------------------------------|---------------------------------|
D|------------------------------|---------------------------------|
A|--------------3-2-------------|--3-3--3-5-3-5-5-----------------| 
E|--5--3--5---5-----------------|-------------------3-------------|

G|------------------------------|---------------------------------|
D|------------------------------|---------------------------------|
A|----------------2-------------|--3---3-3-2-3-5------------------| 
E|--5--5--3-5---5---------------|----------------3----------------|

G|------------------------------|---------------------------------|
D|------------------------------|---------------------------------|
A|--------------3-2-------------|--3-3--3-5-3-5-5-----------------| 
E|--5--3--5---5-----------------|-------------------3-------------|

[Refrão] 

G|------------------------------|---------------------------------|
D|------------------------------|---------------------------------|
A|----------------2-------------|--3---3-3-2-3-5------------------| 
E|--5--5--3-5---5---------------|----------------3----------------|
    1  2    3 4 +                  1 2 +  3    4 +     

G|------------------------------|---------------------------------|
D|------------------------------|---------------------------------|
A|--------------3-2-------------|--3-3--3-5-3-5-5-----------------| 
E|--5--3--5---5-----------------|-------------------3-------------|
    1  2  3 4 +                    1   2+     3   4 +

G|------------------------------|---------------------------------|
D|------------------------------|---------------------------------|
A|----------------2-------------|--3---3-3-2-3-5------------------| 
E|--5--5--3-5---5---------------|----------------3----------------|

G|------------------------------|---------------------------------|
D|------------------------------|---------------------------------|
A|--------------3-2-------------|--3-3--3-5-3-5-5-----------------| 
E|--5--3--5---5-----------------|-------------------3-------------|

[Refrão] 

G|------------------------------|---------------------------------|
D|------------------------------|---------------------------------|
A|----------------2-------------|--3---3-3-2-3-5------------------| 
E|--5--5--3-5---5---------------|----------------3----------------|
    1  2    3 4 +                  1 2 +  3    4 +     

G|------------------------------|---------------------------------|
D|------------------------------|---------------------------------|
A|--------------3-2-------------|--3-3--3-5-3-5-5-----------------| 
E|--5--3--5---5-----------------|-------------------3-------------|
    1  2  3 4 +                    1   2+     3   4 +

G|------------------------------|---------------------------------|
D|------------------------------|---------------------------------|
A|----------------2-------------|--3---3-3-2-3-5------------------| 
E|--5--5--3-5---5---------------|----------------3----------------|

G|------------------------------|---------------------------------|
D|------------------------------|---------------------------------|
A|--------------3-2-------------|--3-3--3-5-3-5-5-----------------| 
E|--5--3--5---5-----------------|-------------------3-------------|

[Refrão] 

G|------------------------------|---------------------------------|
D|------------------------------|---------------------------------|
A|----------------2-------------|--3---3-3-2-3-5------------------| 
E|--5--5--3-5---5---------------|----------------3----------------|
    1  2    3 4 +                  1 2 +  3    4 +     

G|------------------------------|---------------------------------|
D|------------------------------|---------------------------------|
A|--------------3-2-------------|--3-3--3-5-3-5-5-----------------| 
E|--5--3--5---5-----------------|-------------------3-------------|
    1  2  3 4 +                    1   2+     3   4 +

G|------------------------------|---------------------------------|
D|------------------------------|---------------------------------|
A|----------------2-------------|--3---3-3-2-3-5------------------| 
E|--5--5--3-5---5---------------|----------------3----------------|

G|------------------------------|---------------------------------|
D|------------------------------|---------------------------------|
A|--------------3-2-------------|--3-3--3-5-3-5-5-----------------| 
E|--5--3--5---5-----------------|-------------------3-------------|
00:00 / 00:00
Otros videos de esta canción
Repetir
Otros videos de esta canción
Compositor no encontrado.
Colaboración y revisión:
  • Irene Maciá
12 exhibiciones
00:00 / 00:00
OK