Cifra Club

Brainwashed

While She Sleeps

Cifrado: Principal (guitarra y guitarra eléctrica)
Selo Cifra Club: esta cifra foi revisada para atender aos critérios oficiais da nossa Equipe de Qualidade.
tono: D
E|-----------------------------------------------------------------------------------------|
B|-----------------------------------------------------------------------------------------|
G|-----------------------------------------------------------------------------------------|
D|-----------------------------------------------------------------------------------------|
A|--0~-5-0~-4-3-0~-3~-0-4-1-1-1--0~-5-0~-4-3-0~-3~-0-3-4-4-4--0~-5-0~-4-3-0~-3~-0-4-1-1-1--|
E|--0~-0-0~-4-3-0~-3~-0-4-1-1-1--0~-0-0~-4-3-0~-3~-0-3-4-4-4--0~-0-0~-4-3-0~-3~-0-4-1-1-1--|

E|-------------------| D|----------------|
B|-------------------| A|----------------|
G|-------------------| F|----------------|
D|-------------------| X2   C|----------------|
A|--0~-5-0~-4-3-0-3--| G|----------------|
E|--0~-0-0~-4-3-0-3--| C|--0-10-0-10-12--|

 

E|-------------------| |--------------- -------------|
B|-------------------| |----------------------------|
G|-------------------| |----------------------------|
D|--0~~---------0~~--| (BRAINWASHED!) |--0~~---------0~~-----------|
A|--0~~---------0~~--| |--0~~---------0~~--0-1-0-1--|
E|--0~~-0-0-0-0-0~~--| |--0~~-0-0-0-0-0~~--0-1-0-1--|

E|------------------------------------------------------------------------------------------------|
B|------------------------------------------4~------------------------------------------------4~--|
G|------------------------------------------7~------------------------------------------------7~--|
D|--0~-4-3-0~-4-3-0~-3~-4-1-1-1-0~-1-0-1-0~----0-3-4-3-0~-4-3-0-4-3-0~-3~-4-1-1-1-0~-1-0-1-0~-----|
A|--0~-4-3-0~-4-3-0~-3~-4-1-1-1-0~-1-0-1-0~----0-3-4-3-0~-4-3-0-4-3-0~-3~-4-1-1-1-0~-1-0-1-0~-----|
E|--0~-4-3-0~-4-3-0~-3~-4-1-1-1-0~-1-0-1-0~----0-3-4-3-0~-4-3-0-4-3-0~-3~-4-1-1-1-0~-1-0-1-0~-----|

E|-----------------| |------------------------------|
B|-----------------| |------------------------------|
G|-----------------| |------------------------------|
D|--0~-3~-4-1-0~~--| |------------------------------|
A|--0~-3~-4-1-0~~--| |--0-----0-----0-----0-----\\--|
E|--0~-3~-4-1-0~~--| |--0-0-0-0-0-0-0-0-0-0-0-0-\\--|

E|--------------------------------------------------------|
B|--------------------------------------------------------|
G|--------------------------------------------------------|
D|--------------------------------------------------------| X3
A|--5-------3-------5-------3------5-------8------7-------|
E|--0-(X13)-0-(X2)--2-(X13)-2-(X2)-3-(X13)-5-(X8)-5-(X7)--|

Played over third time
E|-------------------------------------------------|
B|-------------------------------------------------|
G|--7-------5-------7-------5-------7--------10-9--|
D|--x-------x-------x-------x-------x--------x--x--|
A|--5-(x13)-3-(x2)--5-(x13)-3-(x2)--5-(x13)--8--7--|
E|-------------------------------------------------|


RIFF!!

E|-----------------------------------------------------------------------------------|
B|-----------------------------------------------------------------------------------|
G|-----------------------------------------------------------------------------------|
D|-----------------------------------------------------------------------------------|
A|-----------------------------------------------------------------------------------|
E|--12-12-12-12-13P-12-12-12-12-15P-12-12-12-12-16P-12-12-12-12-15P-12-12-12-12-13P--|

E|-----------------------------------------------------------------------|
B|-----------------------------------------------------------------------|
G|-----------------------------------------------------------------------|
D|-----------------------------------------------------------------------|
A|--------------------------------------------------------------0-0-0-0--|
E|--12-12-12-12-13P-12-12-12-12-15P-12-12-12-12-16P-12-12-12-12-0-0-0-0--|

E|-----------------------------------------------------------------------------------|
B|-----------------------------------------------------------------------------------|
G|-----------------------------------------------------------------------------------|
D|-----------------------------------------------------------------------------------|
A|-----------------------------------------------------------------------------------|
E|--12-12-12-12-13P-12-12-12-12-15P-12-12-12-12-16P-12-12-12-12-15P-12-12-12-12-13P--|

E|----------------------------------------------------------------|
B|----------------------------------------------------------------|
G|----------------------------------------------------------------|
D|----------------------------------------------------------------|
A|-----------------------------------------------6-----3---6------|
E|--12-12-12-12-13P-12-12-12-12-15P-12-12-12-12----4-1---1---4-1--|

E|---------------------------------------------------------------------------------------------------|
B|---------------------------------------------------------------------------------------------------|
G|---------------------------------------------------------------------------------------------------|
D|--0~-7/9-0~-----8-8-8-3-3-3-7-7-7-1-1-1-1-------0~-7/9-0~-----8-8-8-3-3-3-7-7-7--------------------| x2
A|--0~-5/7-0~-----8-8-8-3-3-3-7-7-7-1-1-1-1-6-----0~-5/7-0~-----8-8-8-3-3-3-7-7-7---------------6----|
E|--0~-----0~-0-0-8-8-8-3-3-3-7-7-7-1-1-1-1---4-1-0~-----0~-0-0-8-8-8-3-3-3-7-7-7-12-12-12-12-4---1--|

Guitar 1
E|---------------------------------------------------------------|
B|---------------------------------------------------------------|
G|---------------------------------------------------------------|
D|---------------------------------------------------------------| x4
A|--0-------0-------0-------0-5-5-5-0-----0-----0-8-8-8-8-7-7-7--|
E|--0-0-0-0-0-0-0-0-0-0-0-0-0-0-0-0-0-0-0-0-0-0-0-8-8-8-8-7-7-7--|

Guitar 2
E|---------------------------------------------------------------------|
B|--10~~-10~~-10~~-10~~-8~~-8~~8/11~-11~~-10~~-10~~-10~~-10~~-5~~-6~~--|
G|---------------------------------------------------------------------|
D|---------------------------------------------------------------------|
A|---------------------------------------------------------------------|
E|---------------------------------------------------------------------|

E|------------------------------------------------------------------|
B|------------------------------------------------------------------|
G|-----------------------------------------------10-10-10-10-9-9-9--|
D|------------------------------------------------x--x--x--x-x-x-x--| x2
A|--0-------0-------0-------0-5-5-5-0-----0-----0-8--8--8--8-7-7-7--|
E|--0-0-0-0-0-0-0-0-0-0-0-0-0-0-0-0-0-0-0-0-0-0-0-------------------|

Guitar 1
E|--------------------------------------------------------|
B|--------------------------------------------------------|
G|--------------------------------------------------------|
D|--------------------------------------------------------|
A|--5-------3-------5-------3------5-------8------7-------|
E|--0-(X13)-0-(X2)--2-(X13)-2-(X2)-3-(X13)-5-(X8)-5-(X4)--|

E|---------|
B|---------|
G|---------|
D|--8-7-0--|
A|--8-7-0--|
E|--8-7-0--|

E|--------------------------------------------------------|
B|--------------------------------------------------------|
G|--------------------------------------------------------|
D|--------------------------------------------------------| x2
A|--5-------3-------5-------3------5-------8------7-------|
E|--0-(X12)-0-(X2)--2-(X13)-2-(X2)-3-(X13)-5-(X8)-5-(X4)--|

Guitar 2 - played over second time
E|-------------------------------------------------|
B|-------------------------------------------------|
G|--7-------5-------7-------5-------7--------10-9--|
D|--x-------x-------x-------x-------x--------x--x--|
A|--5-(x13)-3-(x2)--5-(x13)-3-(x2)--5-(x13)--8--7--|
E|-------------------------------------------------|

E|-------------------------------------|
B|-------------------------------------|
G|-------------------------------------|
D|--0~~----------0~~-------------------|
A|--0~~--6-----3-0~~--6-----3---6------|
E|--0~~----4-1---0~~----4-1---1---4-1--|

WE'D  BEING BRAINWASHED!

E|-----------------------------------------------------------------------------------|
B|-----------------------------------------------------------------------------------|
G|-----------------------------------------------------------------------------------|
D|-----------------------------------------------------------------------------------|
A|-----------------------------------------------------------------------------------|
E|--12-12-12-12-13P-12-12-12-12-15P-12-12-12-12-16P-12-12-12-12-15P-12-12-12-12-13P--|

E|------------------------------------------------------------------------------|
B|------------------------------------------------------------------------------|
G|------------------------------------------------------------------------------|
D|------------------------------------------------------------------------------| X4
A|--------------------------------------------------------------6----3---6------|
E|--12-12-12-12-13P-12-12-12-12-15P-12-12-12-12-16P-12-12-12-12--4-1---1---4-1--|

E|-----------------|
B|-----------------|
G|-----------------|
D|-----------------| X2
A|-6----3---6------|
E|--4-1---1---4-1--|




************************************

| x   Dead note
| g   Grace note
| (n) Ghost note
| h   Hammer-on
| p   Pull-off
| r   Release
| >   Accented note
| t   Tapping
| b   Bend
| br  Bend release
| pb  Pre-bend
| pbr Pre-bend release
| /   Slide up
| \   Slide down
| ~   Vibrato
| s   Slap
| P   Pop
| PM  Palm mute
| TR  Trill
| N   Tremolo
Otros videos de esta canción
    11 exhibiciones
      • ½ Tono
      • A
      • Bb
      • B
      • C
      • Db
      • D
      • Eb
      • E
      • F
      • F#
      • G
      • Ab
    • Agregar a la lista

    Afinación de cifrado

    Afinador online

      OK