Cifra Club

Civil Isolation

While She Sleeps

Cifrado: Principal (guitarra y guitarra eléctrica)
Selo Cifra Club: esta cifra foi revisada para atender aos critérios oficiais da nossa Equipe de Qualidade.
tono: Gm
E|--------|
B|-<5>~~--|
G|-<5>~~--|
D|-<5>~~--|
A|--------|
E|--------|


[Verse 1]

Guitar 1

E|---------------------------------------------------------|
B|---------------------------------------------------------|
G|---------------------------------------------------------|
D|--0-----------8-0----------7--0----------3---------------|
A|--0---0-0--0--5-0---0-0--0-5--0---0-0--0-5--6-6-0-3h5----|
E|--0---0-0--0----0---0-0--0----0---0-0--0-----------------| (x3)

E|------------------------------------------------------------|
B|------------------------------------------------------------|
G|------------------------------------------------------------|
D|--5----------7--5----------7--8----------10--8----------10--|
A|--5---5-5--5----5---5-5--5----8---8-8--8-----8---8-8--8-----|
E|--5---5-5--5----5---5-5--5----8---8-8--8-----8---8-8--8-----|


Guitar 2

E|-----------------------------------------------------------|
B|-----------------------------------------------------------|
G|-----------------------------------------------------------|
D|--0-------------0-------------0----------------------------|
A|--0---0-0--0-1--0---0-0--0-0--0---0-0--0----1-1-0-3h5------|
E|--0---0-0--0----0---0-0--0----0---0-0--0-3--1-1------------| (x3)

E|------------------------------------------------------------|
B|------------------------------------------------------------|
G|-------------7-------------7-------------7--------------7---|
D|--5-------------5-------------8--------------8--------------|
A|--5---5-5--5----5---5-5--5----8---8-8--8-----8---8-8--8-----|
E|--5---5-5--5----5---5-5--5----8---8-8--8-----8---8-8--8-----|


[Chorus 1]

E|---------------------------------------------------------------------------|
B|---------------------------------------------------------------------------|
G|---------------------------------------------------------------------------|
D|--0-0-0-0-0-0-0-0---10-10-10-10-10-10-10---5-5-5-5-5-5---8-8-8-8-8--10-12--|
A|--0-0-0-0-0-0-0-0---10-10-10-10-10-10-10---5-5-5-5-5-5---8-8-8-8-8--10-12--|
E|--0-0-0-0-0-0-0-0---10-10-10-10-10-10-10---5-5-5-5-5-5---8-8-8-8-8--10-12--|

E|----------------------------------------------------------------------|
B|----------------------------------------------------------------------|
G|----------------------------------------------------------------------|
D|---0-0-0-0-0-0---10-10-10-10-10-10-10---5-5-5-5-5-5---3-3-3-3-3--5-7--|
A|---0-0-0-0-0-0---10-10-10-10-10-10-10---5-5-5-5-5-5---3-3-3-3-3--5-7--|
E|---0-0-0-0-0-0---10-10-10-10-10-10-10---5-5-5-5-5-5---3-3-3-3-3--5-7--| (x2)


[Chorus 1 Continued]

Guitar 1

E|-----------------------------------------------------------------|
B|-----------------------------------------------------------------|
G|-----------------------------------------------------------------|
D|--0------10------5------8-----10-12--0------10------8-----3------|
A|--0(x8)--10(x8)--5(x8)--8(x5)-10-12--0(x8)--10(x8)--8(x8)-3(x8)--|
E|--0------10------5------8-----10-12--0------10------8-----3------|

Guitar 2

E|---------------13p12-10----------------10----12h13-------------13p12-10----------------------------|
B|--------10--------------10--------10------10-------------10-------------10-------10----11p10-8h10--|
G|--7/10-----10----------------7/10----10-------------7/10----10--------------7/10----10-------------|
D|---------------------------------------------------------------------------------------------------|
A|---------------------------------------------------------------------------------------------------|
E|---------------------------------------------------------------------------------------------------| (x2)


[Weird Solo]

Guitar 1

E|--------------------------|
B|--------------------------|
G|--------------------------|
D|--8-------5------11-------|
A|--8(x16)--5(x8)--11(x8)---|
E|--8-------5------11-------|


Guitar 2

E|--13-12-----13-12-----13-12-----12--------10------10h13----10h12--|
B|--------10--------10-------10------10-12-----11-9--------9--------|
G|------------------------------------------------------------------|
D|------------------------------------------------------------------|
A|------------------------------------------------------------------|
E|------------------------------------------------------------------|


[Breakdown]

E|--------0-----------------------------1p0--------------------------------|
B|---------3---------------------------------------------------------------|
G|----------2-------------------------------2------------------------------|
D|-0---0--------0--------7---7-8-7----0--------0------0-0------------------|
A|-0---0--------0--12/-0--------------0--------0--12/-0-0---7-7-7-7-7-7h8--|
E|-0---0--------0--12/-0---0----------0--------0--12/-0-0------------------|

E|-----------------------------------0----------------------|
B|-------5----------------------------3---------------------|
G|------7------------------------------2--------------------|
D|--0--6----0------0-7-------------0------0--12/-----1-1-1--|
A|--0-------0--12/-0------7h8-10-8-0------0--12/-0-0-1-1-1--|
E|--0-------0--12/-0---0-----------0------0--12/-0-0-1-1-1--|

Said the sceptic born and bred negative
E|-------------------------------------------------------------------|
B|-------------------------------------------------------------------|
G|-------------------------------------------------------------------|
D|---0-0-0-0-0-0---8-8-8-8-8-8---10-10-10-10-10-10----7-7-7-7-7-7-7--|
A|---0-0-0-0-0-0---8-8-8-8-8-8---10-10-10-10-10-10----7-7-7-7-7-7-7--|
E|---0-0-0-0-0-0---8-8-8-8-8-8---10-10-10-10-10-10----7-7-7-7-7-7-7--|

E|-------------------------------------------------------------|
B|-------------------------------------------------------------|
G|-------------------------------------------------------------|
D|---0-0-0-0-0-0---8-8-8-8-8-8---3-3-3-3-3-3---5-5-5-----------|
A|---0-0-0-0-0-0---8-8-8-8-8-8---3-3-3-3-3-3---5-5-5-8h10-5h7--|
E|---0-0-0-0-0-0---8-8-8-8-8-8---3-3-3-3-3-3---5-5-5-8h10-5h7--|


[Verse 2]

Guitar 1

E|---------------------------------------------------------|
B|---------------------------------------------------------|
G|---------------------------------------------------------|
D|--0-----------8-0----------7--0----------3---------------|
A|--0---0-0--0--5-0---0-0--0-5--0---0-0--0-5--6-6-0-3h5----|
E|--0---0-0--0----0---0-0--0----0---0-0--0-----------------| (x3)

E|------------------------------------------------------------|
B|------------------------------------------------------------|
G|------------------------------------------------------------|
D|--5----------7--5----------7--8----------10--8----------10--|
A|--5---5-5--5----5---5-5--5----8---8-8--8-----8---8-8--8-----|
E|--5---5-5--5----5---5-5--5----8---8-8--8-----8---8-8--8-----|


Guitar 2

E|-----------------------------------------------------------|
B|-----------------------------------------------------------|
G|-----------------------------------------------------------|
D|--0-------------0-------------0----------------------------|
A|--0---0-0--0-1--0---0-0--0-0--0---0-0--0----1-1-0-3h5------|
E|--0---0-0--0----0---0-0--0----0---0-0--0-3--1-1------------| (x3)

E|------------------------------------------------------------|
B|------------------------------------------------------------|
G|-------------7-------------7-------------7--------------7---|
D|--5-------------5-------------8--------------8--------------|
A|--5---5-5--5----5---5-5--5----8---8-8--8-----8---8-8--8-----|
E|--5---5-5--5----5---5-5--5----8---8-8--8-----8---8-8--8-----|





[Suspension] 

(pick fast bend the pitch up)
E|--------------------------------------------------------------------------------------|
B|--------------------------------------------------------------------------------------|
G|--7-7-7-7-7-7--7-7-7-7-7-7-7-7b-7b-7b-7b-7b-7b-7b-7b-7b-b-7b-7b-7b-7b-7b-7b-7b-7b-7b--|
D|--------------------------------------------------------------------------------------|
A|--------------------------------------------------------------------------------------|
E|--------------------------------------------------------------------------------------|


[Breakdown 2]

E|---------------------------------------------------------------------------------------------------|
B|--------------------------------------------------------------------------------------------15-----|
G|--------------------------------------------10----10-------------------------------------------14--|
D|--0-----------0----------------0---------12----12----12-10h12--0-----------0-----------------------|
A|--0-0--0-0----0-0--0-0---------0-0---0-0-----------------------0-0--0-0----0-0--0-0-------0-0------|
E|--0-0--0-0----0-0--0-0--0-0-0--0-0---0-0-----------------------0-0--0-0----0-0--0-0-------0-0------|

E|------------------------------------------|
B|------------------------------------------|
G|------------------------10----10----------|
D|--0-----------0------12----12----12-10h12-|
A|--0-0--0-0----0-0--0----------------------|
E|--0-0--0-0----0-0--0----------------------|


[Breakdown 2 Continued]

E|---------------------------------------------------------------------------------------------------------|
B|------------------------------------------------------------------------------------5--------------------|
G|-----------------------------------------------------------------------------------7---------------------|
D|--0----------8--------------------------------------------------------------------6---0---12/-----1-1-1--|
A|--0-0------0-8-0--8h10-5h7-0---0-3-0-0-2-0-0--2h3-0---0--6*-0-8-0-2-2-2-2-2-2h3-0-----0---12/-0-0-1-1-1--|
E|--0-0----x-0-8-0--8h10-5h7-0---0-3-0-0-2-0-0--2h3-0---0-----0-8-0-2-2-2-2-2-2h3-0-----0---12/-0-0-1-1-1--|


[Clean Part]

E|------------------------------------------------------------------|
B|-------------------------------------------------------5h6p5------|
G|-------7-7------7h9p7--------7-------7h9p7--------7-7--------5----|
D|-0---0-----0--0-------0---0----0---0--------0---0--------------7--|
A|-0---0-----0--0-------0---0----0---0--------0---0-----------------|
E|-0---0-----0--0-------0---0----0---0--------0---0-----------------| (x2)
                                                                
E|----------------------------------------------------------------|
B|----------------------------------------------------8h10p8------|
G|-------7-7------7h9p7--------7-----7h9p7-5-----5/7---------10\7-|
D|-0---0-----0--0--------0---0----0--------0--7-------------------|
A|-0---0-----0--0--------0---0----0--------0--0-------------------|
E|-0---0-----0--0--------0---0----0--------0--0-------------------|


[Clean Build Up]

Guitar 1

E|---------------------------------------------------------|
B|---------------------------------------------------------|
G|---------------------------------------------------------|
D|--0---0--0-0---5---5--5-5---8---8--8-10--0---0--0-0-0-0--|
A|--0---0--0-0---5---5--5-5---8---8--8-10--0---0--0-0-0-0--|
E|--0---0--0-0---5---5--5-5---8---8--8-10--0---0--0-0-0-0--| (x4)

Guitar 2

E|-----------------------------------------------------------------------------------------|
B|-----------------------------------------------------------------------------------------|
G|--7--7--7-5--------------------------------7--7--7-5-------------------------------------|
D|------------5--5--5-8--7--7--7-----------------------5--5--5-8-7--7--7-------------------|
A|-------------------------------8--5------------------------------------3-5--5/7-7h8-7h8--|
E|-----------------------------------------------------------------------------------------| (x2)


[Build Up]

Guitar 1 (spam these notes)

E|--17------------|
B|--15(spa| malam)--|
G|--14------------|
D|----------------|
A|----------------|
E|----------------|

Guitar 2 (Joins in, Guitar 1 then joins at *)


[Chorus 2]

E|---------------------------------------------------------------------------|
B|---------------------------------------------------------------------------|
G|---------------------------------------------------------------------------|
D|--0-0-0-0-0-0-0-0---10-10-10-10-10-10-10---5-5-5-5-5-5---8-8-8-8-8--10-12--|
A|--0-0-0-0-0-0-0-0---10-10-10-10-10-10-10---5-5-5-5-5-5---8-8-8-8-8--10-12--|
E|--0-0-0-0-0-0-0-0---10-10-10-10-10-10-10---5-5-5-5-5-5---8-8-8-8-8--10-12--|

   *
E|----------------------------------------------------------------------|
B|----------------------------------------------------------------------|
G|----------------------------------------------------------------------|
D|---0-0-0-0-0-0---10-10-10-10-10-10-10---5-5-5-5-5-5---3-3-3-3-3--5-7--|
A|---0-0-0-0-0-0---10-10-10-10-10-10-10---5-5-5-5-5-5---3-3-3-3-3--5-7--|
E|---0-0-0-0-0-0---10-10-10-10-10-10-10---5-5-5-5-5-5---3-3-3-3-3--5-7--| (x2)

[Chorus 2 Continued]

Guitar 1

E|-----------------------------------------------------------------|
B|-----------------------------------------------------------------|
G|-----------------------------------------------------------------|
D|--0------10------5------8-----10-12--0------10------8-----3------|
A|--0(x8)--10(x8)--5(x8)--8(x5)-10-12--0(x8)--10(x8)--8(x8)-3(x8)--|
E|--0------10------5------8-----10-12--0------10------8-----3------|

Guitar 2


E|---------------13p12-10----------------10----12h13-------------13p12-10----------------------------|
B|--------10--------------10--------10------10-------------10-------------10-------10----11p10-8h10--|
G|--7/10-----10----------------7/10----10-------------7/10----10--------------7/10----10-------------|
D|---------------------------------------------------------------------------------------------------|
A|---------------------------------------------------------------------------------------------------|
E|---------------------------------------------------------------------------------------------------| (x2)

And I'm Running On Empty

Guitar 1

E|----------------------------------------------------------|
B|----------------------------------------------------------|
G|----------------------------------------------------------|
D|--8----8----8----5----5----5-----8--------10------11------|
A|--8----8----8----5----5----5-----8(x16)---10(x9)--11(x7)--|
E|--8----8----8----5----5----5-----8--------10------11------|

Guitar 2

E|---------------13p12-10----------------10----12h13-------------13p12-10----------------------------|
B|--------10--------------10--------10------10-------------10-------------10-------10----11p10-8h10--|
G|--7/10-----10----------------7/10----10-------------7/10----10--------------7/10----10-------------|
D|---------------------------------------------------------------------------------------------------|
A|---------------------------------------------------------------------------------------------------|
E|---------------------------------------------------------------------------------------------------| (x2)


[Breakdown]

E|--------0-----------------------------1p0-------------------------------|
B|---------3--------------------------------------------------------------|
G|----------2-------------------------------2-----------------------------|
D|-0---0--------0--------7---7-8-7----0--------0------0-0-----------------|
A|-0---0--------0--12/-0--------------0--------0--12/-0-0---7-7-7-7-7-7h7-|
E|-0---0--------0--12/-0---0----------0--------0--12/-0-0-----------------|

E|-----------------------------------0----------------------|
B|-------5----------------------------3---------------------|
G|------7------------------------------2--------------------|
D|--0--6----0------0-7-------------0------0--12/-----1-1-1--|
A|--0-------0--12/-0------7h8-10-8-0------0--12/-0-0-1-1-1--|
E|--0-------0--12/-0---0-----------0------0--12/-0-0-1-1-1--|



************************************

| x  Dead note
| h  Hammer-on
| p  Pull-off
| b  Bend
| /  Slide up
| \  Slide down
Otros videos de esta canción
    17 exhibiciones
      • ½ Tono
      • Am
      • Bbm
      • Bm
      • Cm
      • C#m
      • Dm
      • Ebm
      • Em
      • Fm
      • F#m
      • Gm
      • G#m
    • Agregar a la lista

    Afinación de cifrado

    Afinador online

      OK