Cifra Club

Death Toll

While She Sleeps

Cifrado: Principal (guitarra y guitarra eléctrica)
Selo Cifra Club: esta cifra foi revisada para atender aos critérios oficiais da nossa Equipe de Qualidade.
tono: F
E|E|-------------------------------------------------------------------------------||
                             SONG NAME - Band Name
E|E|-------------------------------------------------------------------------------||
Tabbed by: AlexT1235
E-mail: AlexT123@live.co.uk

This may not be 100% correct as I learnt it be ear, but its pretty accurate.
Hope this helps, if I made any mistakes let me know.


Tuning: DROP C

Intro:

Lead
E|-----------------------------|
B|--12--------13-------10------|
G|---9--x16---10--x8----7--x8--| x6
D|---9--------10--------7------|
A|-----------------------------|
E|-----------------------------|


Rhythm:
E|--------------------------------------------------------------------------|
B|--------------------------------------------------------------------------|
G|--------------------------------------------------------------------------|
D|--222-0~-222-0~-2---222-0~-222-0~-2---333-0~-333-0~-3---222-0~-222--------|
A|--222-0~-222-0~-2---222-0~-222-0~-2---333-0~-333-0~-3---222-0~-222--------|
E|--222-0~-222-0~-2---222-0~-222-0~-2---333-0~-333-0~-3---222-0~-222-0-6-3--|


E|------------------------------------------------------------------|
B|------------------------------------------------------------------|
G|------------------------------------------------------------------|
D|--222-0~-222-0~-2---222-0~-222-0~-2---333-0~-333-0~-3---22222222--|
A|--222-0~-222-0~-2---222-0~-222-0~-2---333-0~-333-0~-3---22222222--|
E|--222-0~-222-0~-2---222-0~-222-0~-2---333-0~-333-0~-3---22222222--|


Verse:


E|----------------------------0~-----------------------------------| |-------------|
B|----------------------------0~-----------------------------------| |-------------|
G|--------3--------------3-----------3-----------------------------| |-------------|
D|--2~0~2-2-0-2-3--2~0~2-2-0-----2~0~2-2-0-2-3---------------------| x2 |-------------|
A|--2~0~2---0-2-3--2~0~2---0-----2~0~2---0-2-3---------------------| |-------------|
E|--2~0~2---0-2-3--2~0~2---0-----2~0~2---0-2-3--66666666-33333333--| |--222222222--|
                                                                           (Repeat)

                                                                     
E|--------------------------------------------------------------------|
B|--------------------------------------------------------------------|
G|--------------------------------------------------------------------|
D|--22-22-22-22-3-0--22-22-22-22----3--22-22-22-22-3-0--12\\-0~-1111--|
A|--22-22-22-22-3-0--22-22-22-22-------22-22-22-22-3-0--12\\-0~-1111--|
E|--22-22-22-22-3-0--22-22-22-222--5---22-22-22-22-3-0--12\\-0~-1111--|

E|----------------------------------------------------------------------------|
B|----------------------------------------------------------------------------|
G|----------------------------------------------------------------------------|
D|--22-22-22-22-3-0--22-22-22-22----3--22-22-22-22-3-0--12\\-0~-111111111111--|
A|--22-22-22-22-3-0--22-22-22-22-------22-22-22-22-3-0--12\\-0~-111111111111--|
E|--22-22-22-22-3-0--22-22-22-222--5---22-22-22-22-3-0--12\\-0~-111111111111--|


Chorus:  


E|--------| D|--------------------------------|
B|-12-----| A|-----12--------13-------10------|
G|--9--x8-| F|------9--x16---10--x8----7--x8--| x4
D|--9-----| C|------9--------10--------7------|
A|--------| G|--------------------------------|
E|--------| C|--------------------------------|
(First time)


E|--------------------------------------------------------------------|
B|--------------------------------------------------------------------|
G|--------------------------------------------------------------------|
D|--22-22-22-22-3-0--22-22-22-22----3--22-22-22-22-3-0--12\\-0~-1111--|
A|--22-22-22-22-3-0--22-22-22-22-------22-22-22-22-3-0--12\\-0~-1111--|
E|--22-22-22-22-3-0--22-22-22-222--5---22-22-22-22-3-0--12\\-0~-1111--|

E|----------------------------------------------------------------------------|
B|----------------------------------------------------------------------------|
G|----------------------------------------------------------------------------|
D|--22-22-22-22-3-0--22-22-22-22----3--22-22-22-22-3-0--12\\-0~-111111111111--|
A|--22-22-22-22-3-0--22-22-22-22-------22-22-22-22-3-0--12\\-0~-111111111111--|
E|--22-22-22-22-3-0--22-22-22-222--5---22-22-22-22-3-0--12\\-0~-111111111111--|
 

E|----------------------------|
B|----------------------------|
G|--------3--------------3----|
D|--2~0~2-2-0-2-3--2~0~2-2-0--|
A|--2~0~2---0-2-3--2~0~2---0--|
E|--2~0~2---0-2-3--2~0~2---0--|

Verse 2: 

E|---------------------------0~-----------------------------------| D|-------------------------|
B|---------------------------0~-----------------------------------| A|-------------------------|
G|--------3--------------3------------3---------------------------| F|-------------------------|
D|--2~0~2-2-0-2-3--2~0~2-2-0----2~0~2-2-0-2-3---------------------| x2   C|--1-1--1-1--1-1----------|
A|--2~0~2---0-2-3--2~0~2---0----2~0~2---0-2-3---------------------| G|--1-1--1-1--1-1----------|
E|--2~0~2---0-2-3--2~0~2---0----2~0~2---0-2-3--66666666-33333333--| C|--1-1--1-1--1-1-1111111--|
                                                                            
 
(Feed Back)



E|---------------------------------------------------------------------------|
B|---------------------------------------------------------------------------|
G|---------------------------------------------------------------------------|
D|---------------------------------------------------------------------------|
A|--222-0~-222-0~-2---222-0~-222-0~-2---222-0~-222-0~-2---222-0~-222-0~-3----|
E|--222-0~-222-0~-2---222-0~-222-0~-2---222-0~-222-0~-2---222-0~-222-0~-3----|

E|--------------------------------------------------------------------------|
B|----------------------------------------------------------------------13--|
G|----------------------------------------------------------------------10--|
D|----------------------------------------------------------------------10--|
A|--222-0~-222-0~-2---222-0~-222-0~-2---222-0~-222-0~-2---222-0~-222-0~-----|
E|--222-0~-222-0~-2---222-0~-222-0~-2---222-0~-222-0~-2---222-0~-222-0~-----|


Breakdown:


E|-------------0-------------0~------------0~---------------|
B|-------------0~------------0~------------0~---------------|
G|----------------------------------------------------------|
D|--2-0~-22-0~----2-0~-22-0~----2-0~-22-0~----2-0~-22-0~-3--|
A|--2-0~-22-0~----2-0~-22-0~----2-0~-22-0~----2-0~-22-0~-3--|
E|--2-0~-22-0~----2-0~-22-0~----2-0~-22-0~----2-0~-22-0~-3--|

E|-------------0~------------0~------------0~--|
B|-------------0~------------0~------------0~--|
G|---------------------------------------------|
D|--2-0~-22-0~----2-0~-22-0~----2-0~-22-0~-----|
A|--2-0~-22-0~----2-0~-22-0~----2-0~-22-0~-----|
E|--2-0~-22-0~----2-0~-22-0~----2-0~-22-0~-----|


E|---------------------------------------------------------------|
B|---------------------------------------------------------------|
G|---------------------------------------------------------------|
D|--2-0~-22-0~-2---2-0~-22-0~-2---2-0~-22-0~-2---2-0~-22-0~-3----| x2
A|--2-0~-22-0~-2---2-0~-22-0~-2---2-0~-22-0~-2---2-0~-22-0~-3----|
E|--2-0~-22-0~-2---2-0~-22-0~-2---2-0~-22-0~-2---2-0~-22-0~-3----|


Chorus:


E|--------| D|--------------------------------|
B|-12-----| A|-----12--------13-------10------|
G|--9--x8-| F|------9--x16---10--x8----7--x8--| x4
D|--9-----| C|------9--------10--------7------|
A|--------| G|--------------------------------|
E|--------| C|--------------------------------|
(First time)


Outro:


E|-----------------------------------------------------------------------|
B|-----------------------------------------------------------------------|
G|-----------------------------------------------------------------------|
D|--22-22-22-22-3-0--22-22-22-22----3--22-22-22-22-3-0--12\\-0~-1111111--|
A|--22-22-22-22-3-0--22-22-22-22-------22-22-22-22-3-0--12\\-0~-1111111--|
E|--22-22-22-22-3-0--22-22-22-222--5---22-22-22-22-3-0--12\\-0~-1111111--|




************************************

| /   slide up
| \   slide down
| h   hammer-on
| p   pull-off
| ~   vibrato
| +   harmonic
| x   Mute note
| b   Bend
| pb  Pre-bend
| br  Bend release
| pbr Pre-bend release
| brb Bend release bend
Otros videos de esta canción
    3 exhibiciones
      • ½ Tono
      • A
      • Bb
      • B
      • C
      • Db
      • D
      • Eb
      • E
      • F
      • F#
      • G
      • Ab
    • Agregar a la lista

    Afinação da cifra

    Afinador online

      Ops (: Contenido disponible solo en portugués.
      OK