Cifra Club

Elephant

While She Sleeps

Cifrado: Principal (guitarra y guitarra eléctrica)
Selo Cifra Club: esta cifra foi revisada para atender aos critérios oficiais da nossa Equipe de Qualidade.
tono: C
Intro
E|-------------------------------|-----------------------------------------------|
B|-------------------------------|-----------------------------------------------|
G|-------------------------------|-----------------------------------------------|
D|---12/-------10-12/------------|--10-10-10-10-10-10-10-10-12/------------------|
A|---12/-------10-12/------------|--10-10-10-10-10-10-10-10-12/------------------|
E|---12/-------10-12/------------|--10-10-10-10-10-10-10-10-12/------------------|

E|-------------------------------|-----------------------------------------------|
B|-------------------------------|-----------------------------------------------|
G|-------------------------------|-----------------------------------------------|
D|---10-12/----------------------|--10-10-10-10-10-10-10-10-12/------------------|
A|---10-12/----------------------|--10-10-10-10-10-10-10-10-12/------------------|
E|---10-12/----------------------|--10-10-10-10-10-10-10-10-12/------------------| 2x

E|-------------------------------|--------------|
B|-------------------------------|--------------|
G|-------------------------------|--------------|
D|---10-12/----------------------|---8-0-3-10---|
A|---10-12/----------------------|---8-0-3-10---|
E|---10-12/----------------------|---8-0-3-10---|

E|-------------------------------|---------------------------------------------------|
B|-------------------------------|---------------------------------------------------|
G|-------------------------------|---------------------------------------------------|
D|-------------------------------|---------------------------------------------------|
A|-------------------------------|---------------------------------------------------|
E|--12-0-0-0-0-0-12-0-0-0-0-0-12-|-0-0-0-0-0-12-0-0-0-0-0-12-0-0-0-0-0-12-0-0-0-0-0--|

E|-------------------------------|-------------------------------------------------------|
B|-------------------------------|-------------------------------------------------------|
G|-------------------------------|-------------------------------------------------------|
D|-------------------------------|-------------------------------------------------------|
A|-------------------------------|-------------------------------------------------------|
E|--12-0-0-0-0-0-12-0-0-0-0-0-12-|--12-12-12-12-12-12-12-12-12b-12b-12b-12b-12b-12b-12b--|

Lyric: We're on a flatline!

Verse 1 /Riff 1
E|---------------------------|--------------------|
B|---------------------------|--------------------|
G|---------------------------|--------------------|
D|--0--8-7--0--5-7--0--8-7---|--------------------|
A|--0--8-7--0--5-7--0--8-7---|----------3h5-------|
E|--0--8-7--0--5-7--0--8-7---|--3h5-x-x-----0-0---|

E|-------------------------|--------------------|
B|-------------------------|--------------------|
G|-------------------------|--------------------|
D|--0--8-7--0--5-7---5--3--|---5-5-5-3-7-3------|
A|--0--8-7--0--5-7---5--3--|---5-5-5-3-7-3------|
E|--0--8-7--0--5-7---5--3--|---5-5-5-3-7-3------|

E|---------------------------|--------------------|
B|---------------------------|--------------------|
G|---------------------------|--------------------|
D|--0--8-7--0--5-7--0--8-7---|--------------------|
A|--0--8-7--0--5-7--0--8-7---|----------3h5-------|
E|--0--8-7--0--5-7--0--8-7---|--3h5-x-x-----0-0---|

E|-------------------------|--------------------|
B|-------------------------|--------------------|
G|-------------------------|--------------------|
D|--0--8-7--0--5-7---5-3-6-|--1-1-1-1-----------|
A|--0--8-7--0--5-7---5-3-6-|--1-1-1-1-----------|
E|--0--8-7--0--5-7---5-3-6-|--1-1-1-1-----------|

Lyric: They say we're only as stong.....

Chorus
E|--------------------------------|--------------------------------|
B|--------------------------------|--------------------------------|
G|--------------------------------|--------------------------------|
D|--0-0-0-0-0-0-0-0-0-0-0-0-0-0-0-|-8-8-8-8-8-8-8-8-8-8-8-8-5-5-5--|
A|--0-0-0-0-0-0-0-0-0-0-0-0-0-0-0-|-8-8-8-8-8-8-8-8-8-8-8-8-5-5-5--|
E|--0-0-0-0-0-0-0-0-0-0-0-0-0-0-0-|-8-8-8-8-8-8-8-8-8-8-8-8-5-5-5--|

E|--------------------------------|--------------------------------------|
B|--------------------------------|--------------------------------------|
G|--------------------------------|--------------------------------------|
D|--0-0-0-0-0-0-0-0-0-0-0-0-0-0-0-|-8-8-8-8-8-8-8-8-8-8-8-8-10-10-10-10--|
A|--0-0-0-0-0-0-0-0-0-0-0-0-0-0-0-|-8-8-8-8-8-8-8-8-8-8-8-8-10-10-10-10--|
E|--0-0-0-0-0-0-0-0-0-0-0-0-0-0-0-|-8-8-8-8-8-8-8-8-8-8-8-8-10-10-10-10--|

Lyric: While the angels sing

E|---------------------------------------|-------------------------------------|
B|---------------------------------------|-------------------------------------|
G|---------------------------------------|-------------------------------------|
D|--0-0-0-0-0-0-0-0-10-10-10-10-10-10-10-|-5-5-5-5-5-5-5-5-5-8-8-8-8-8-8-8-8-8-|
A|--0-0-0-0-0-0-0-0-10-10-10-10-10-10-10-|-5-5-5-5-5-5-5-5-5-8-8-8-8-8-8-8-8-8-|
E|--0-0-0-0-0-0-0-0-10-10-10-10-10-10-10-|-5-5-5-5-5-5-5-5-5-8-8-8-8-8-8-8-8-8-|

E|---------------------------|---------------------------------|
B|---------------------------|---------------------------------|
G|---------------------------|---------------------------------|
D|--3-3-3-3-3-3-5-5-5-5-5-5--|--0--0--0--0-0-----0--0--0--0-0--|
A|--3-3-3-3-3-3-5-5-5-5-5-5--|--0--0--0--0-0-----0--0--0--0-0--|
E|--3-3-3-3-3-3-5-5-5-5-5-5--|--0--0--0--0-0-----0--0--0--0-0--|

Play these two sections 2 times

Lead part chorus
E|---17--------------|
B|------18--17--15---|
G|-------------------|
D|-------------------|
A|-------------------|
E|-------------------| This repeats

Verse 2 /Riff 1 with variation
E|---------------------------|--------------------|
B|---------------------------|--------------------|
G|---------------------------|--------------------|
D|--0--8-7--0--5-7--0--8-7---|--------------------|
A|--0--8-7--0--5-7--0--8-7---|----------3h5-------|
E|--0--8-7--0--5-7--0--8-7---|--3h5-x-x-----0-0---|

E|-------------------------|--------------------|
B|-------------------------|--------------------|
G|-------------------------|--------------------|
D|--0--8-7--0--5-7---5--3--|---5-5-5-3-7-3------|
A|--0--8-7--0--5-7---5--3--|---5-5-5-3-7-3------|
E|--0--8-7--0--5-7---5--3--|---5-5-5-3-7-3------|

E|---------------------------|--------------------|
B|---------------------------|--------------------|
G|---------------------------|--------------------|
D|--0--8-7--0--5-7--0--8-7---|--------------------|
A|--0--8-7--0--5-7--0--8-7---|----------3h5-------|
E|--0--8-7--0--5-7--0--8-7---|--3h5-x-x-----0-0---|

E|-------------------------|---------------------------|
B|-------------------------|---------------------------|
G|-------------------------|---------------------------|
D|--0--8-7--0--5-7---5-3-6-|--1-1-1-1--5-3-6--1-1-1-1--|
A|--0--8-7--0--5-7---5-3-6-|--1-1-1-1--5-3-6--1-1-1-1--|
E|--0--8-7--0--5-7---5-3-6-|--1-1-1-1--5-3-6--1-1-1-1--|

Chorus
E|--------------------------------|--------------------------------|
B|--------------------------------|--------------------------------|
G|--------------------------------|--------------------------------|
D|--0-0-0-0-0-0-0-0-0-0-0-0-0-0-0-|-8-8-8-8-8-8-8-8-8-8-8-8-5-5-5--|
A|--0-0-0-0-0-0-0-0-0-0-0-0-0-0-0-|-8-8-8-8-8-8-8-8-8-8-8-8-5-5-5--|
E|--0-0-0-0-0-0-0-0-0-0-0-0-0-0-0-|-8-8-8-8-8-8-8-8-8-8-8-8-5-5-5--|

E|--------------------------------|--------------------------------------|
B|--------------------------------|--------------------------------------|
G|--------------------------------|--------------------------------------|
D|--0-0-0-0-0-0-0-0-0-0-0-0-0-0-0-|-8-8-8-8-8-8-8-8-8-8-8-8-10-10-10-10--|
A|--0-0-0-0-0-0-0-0-0-0-0-0-0-0-0-|-8-8-8-8-8-8-8-8-8-8-8-8-10-10-10-10--|
E|--0-0-0-0-0-0-0-0-0-0-0-0-0-0-0-|-8-8-8-8-8-8-8-8-8-8-8-8-10-10-10-10--|

Lyric: While the angels sing

E|---------------------------------------|-------------------------------------|
B|---------------------------------------|-------------------------------------|
G|---------------------------------------|-------------------------------------|
D|--0-0-0-0-0-0-0-0-10-10-10-10-10-10-10-|-5-5-5-5-5-5-5-5-5-8-8-8-8-8-8-8-8-8-|
A|--0-0-0-0-0-0-0-0-10-10-10-10-10-10-10-|-5-5-5-5-5-5-5-5-5-8-8-8-8-8-8-8-8-8-|
E|--0-0-0-0-0-0-0-0-10-10-10-10-10-10-10-|-5-5-5-5-5-5-5-5-5-8-8-8-8-8-8-8-8-8-|

E|---------------------------|---------------------------------|
B|---------------------------|---------------------------------|
G|---------------------------|---------------------------------|
D|--3-3-3-3-3-3-5-5-5-5-5-5--|--0--0--0--0-0-----0--0--0--0-0--|
A|--3-3-3-3-3-3-5-5-5-5-5-5--|--0--0--0--0-0-----0--0--0--0-0--|
E|--3-3-3-3-3-3-5-5-5-5-5-5--|--0--0--0--0-0-----0--0--0--0-0--|

Lyric: Everything will be okay
E|--------------------------------------|----------------|
B|--------------------------------------|----------------|
G|--------------------------------------|----------------|
D|--0-0-0-0-0-0-0-0-2-2-2-2-2-3-3-3-3-3-|-5-5-5-5-5-5-5--|
A|--0-0-0-0-0-0-0-0-2-2-2-2-2-3-3-3-3-3-|-5-5-5-5-5-5-5--|
E|--0-0-0-0-0-0-0-0-2-2-2-2-2-3-3-3-3-3-|-5-5-5-5-5-5-5--|

E|---------------------------|---------------------------------|
B|---------------------------|---------------------------------|
G|---------------------------|---------------------------------|
D|--3-3-3-3-3-3-5-5-5-5-5-5--|--0--0--0--0-0-----0--0--0--0-0--|
A|--3-3-3-3-3-3-5-5-5-5-5-5--|--0--0--0--0-0-----0--0--0--0-0--|
E|--3-3-3-3-3-3-5-5-5-5-5-5--|--0--0--0--0-0-----0--0--0--0-0--|

Break
E|-------------------------------|-----------------------------------------------|
B|-------------------------------|-----------------------------------------------|
G|-------------------------------|-----------------------------------------------|
D|---12/-------10-12/------------|--10-10-10-10-10-10-10-10-12/------------------|
A|---12/-------10-12/------------|--10-10-10-10-10-10-10-10-12/------------------|
E|---12/-------10-12/------------|--10-10-10-10-10-10-10-10-12/------------------|

E|-------------------------------|-----------------------------------------------|
B|-------------------------------|-----------------------------------------------|
G|-------------------------------|-----------------------------------------------|
D|---10-12/----------------------|--10-10-10-10-10-10-10-10-12/------------------|
A|---10-12/----------------------|--10-10-10-10-10-10-10-10-12/------------------|
E|---10-12/----------------------|--10-10-10-10-10-10-10-10-12/------------------| 2x

E|-------------------------------|
B|-------------------------------|
G|-------------------------------|
D|---10-12/----------------------|
A|---10-12/----------------------|
E|---10-12/----------------------|

Outro Riff
E|--------------------------------|---------------------------------------|
B|--------------------------------|---------------------------------------|
G|---------5/7/9/7----------------|---------------------------------------|
D|---------x-x-x-x----------------|-----10---10/12------------------5-----|
A|---------3/5/7/5---5----3-5-3-5-|-----------------------------5-8---7---|
E|--0-12/----------0---0----------|-5/8----8-------3-5~--3-5-3------------|

E|--------------------------------|-------------------------------------------|
B|--------------------------------|-------------------------------------------|
G|---------5/7/9/7----------------|-------------------------------------------|
D|---------x-x-x-x----------------|-----10---10/12----------12---12/14--10/12-|
A|---------3/5/7/5---5----8-10-8-7|-------------------------------------------|
E|--0-12/----------0---0----------|-5/8----8-------8-10~-10---10--------------|

E|--------------------------------|---------------------------------------|
B|--------------------------------|---------------------------------------|
G|---------5/7/9/7----------------|---------------------------------------|
D|---------x-x-x-x----------------|-----10---10/12------------------5-----|
A|---------3/5/7/5---5----3-5-3-5-|-----------------------------5-8---7---|
E|--0-12/----------0---0----------|-5/8----8-------3-5~--3-5-3------------|

E|--------------------------------|----------------------------------------------|
B|--------------------------------|----------------------------------------------|
G|---------5/7/9/7----------------|----------------------------------------------|
D|---------x-x-x-x----------------|-----10---10/12----------12---12/14--10/12--0-|
A|---------3/5/7/5---5----8-10-8-7|--------------------------------------------0-|
E|--0-12/----------0---0----------|-5/8----8-------8-10~-10---10---------------0-|


-=================================================

p = Pull off
x = Dead note 
/ = Slide
b = Bend note 
r = Release note 
~ = Vibrato 
Otros videos de esta canción
    10 exhibiciones
      • ½ Tono
      • A
      • Bb
      • B
      • C
      • Db
      • D
      • Eb
      • E
      • F
      • F#
      • G
      • Ab
    • Agregar a la lista

    Afinación de cifrado

    Afinador online

      OK