Cifra Club

Four Walls

While She Sleeps

Cifrado: Principal (guitarra y guitarra eléctrica)
Selo Cifra Club: esta cifra foi revisada para atender aos critérios oficiais da nossa Equipe de Qualidade.
tono: E
E|-14h17p14----14-------------12-------------9------------------------------------------------|
B|----------17----17-14s12-14----14-12-10-12---10p9-10p9----9---------------------------------|
G|-------------------------------------------------------11---11-9-11p9----9------------------|
D|----------------------------------------------------------------------11---11-9-------------|
A|--------------------------------------------------------------------------------12-11-------|
E|--------------------------------------------------------------------------------------------|

E|---------------------------------------------------------|
B|---------------------------------------------------------|
G|---------------------------------------------------------|
D|-9---9h11p9-------------9---9h11p9-----------------------|
A|------------12-9s7s9---------------12-9s7s9--------------|
E|---------------------------------------------------------|
Otros videos de esta canción
    44 exhibiciones
      • ½ Tono
      • A
      • Bb
      • B
      • C
      • Db
      • D
      • Eb
      • E
      • F
      • F#
      • G
      • Ab
    • Agregar a la lista

    Afinación de cifrado

    Afinador online

      OK