Cifra Club

Silence Speaks

While She Sleeps

Cifrado: Principal (guitarra y guitarra eléctrica)
Selo Cifra Club: esta cifra foi revisada para atender aos critérios oficiais da nossa Equipe de Qualidade.
tono: Ebm
(00:08) (First chord is clean sound with reverb but add distortion right after)
E|-------------------------|
B|-------------------------|
G|--11~--------------------|
D|--11~----4-------9-------|
A|--9~-----4(x16)--9(x16)--|
E|--0~-----4-------9-------|

(00:16) "Tear the borders break the walls"
E|------------------------------------------------------2-----2-------------------------------2------|
B|----------------------------------------------------2-2---2-2-----------------------------2-2------|
G|----------------------------------------------------2-2---2-2-----------------------------2-2------|
D|--0----0-0----0----0-0----------------------------0-----0-------------------------------0-------2--|
A|--0----0-0----0----0-0----------------------------0-----0-------------------------------0-------2--|
E|--0----0-0----0----0-0---4(x4)-6(x4)-7(x4)-9(x4)--0-----0------4(x4)-5(x4)-7(x4)-9(x4)--0-------2--|

(00:31) Lead solo part (If anyone finds an easier way to play this please comment)
E|--14----------17---16h17--14----------17p16-17p16--14-----------17----16h17--14-------17/19\17--12-----|
B|-----------------14------------------------------------------------14-----------17-14--------------14--|
G|-----14-13\11----------------14-13\11-----------------14-13\11-----------------------------------------|
D|-------------------------------------------------------------------------------------------------------|
A|-------------------------------------------------------------------------------------------------------|
E|-------------------------------------------------------------------------------------------------------|

E|--14----------17---16h17--14----------17p16--------14-----------17----16h17~-|
B|-----------------14-------------------------17p14------------------14--------|
G|-----14-13\11----------------14-13\11-----------------14-13\11---------------| x2
D|-----------------------------------------------------------------------------|
A|-----------------------------------------------------------------------------|
E|-----------------------------------------------------------------------------|

[Rhythm Part]
E|--------------------------------------------------------------------------------|
B|--------------------------------------------------------------------------------|
G|--------------------------------------------------------------------------------|
D|--0---0---0----------0---0---4-4-4-2-2--0---0---0--------------------4----------|
A|--0---0---0---0(x8)--0---0---4-4-4-2-2--0---0---0---0(x8)--0----0----4----4-2---|
E|--0---0---0---0------0---0---4-4-4-2-2--0---0---0---0------0----0----4----4-2---|

Verse A
(00:52) Lead
E|------------------------------------------------------------------------------------------------|
B|------------------------------------------------------------------------------------------------|
G|-11---------------------7----------9------------11--------------------4-------------------------|
D|-11------11--9----------7(x4)7p6h7-9(x4)-9p7----11(x7)--11--9---------4(x6)----11---9-----------|
A|-9(x7)-9---9---9-12-9---5----------7---------9--9-----9---9---9-12-9--2----------------12---9---|
E|----------------------------------------------------------------------------0----0---0----0-----|

[Rhythm]
E|-------------------------------------------------|
B|-------------------------------------------------|
G|--11-------7------9------11------4-------7-------|
D|--11-------7------9------11------4-------7-------| x2
A|--9--------5------7------9-------2-------5-------|
E|-------------------------------------------------|

(1:13) Pre Verse B]
E|--------------------2--2--2---------|
B|--------------------2--2--2---------|
G|--------------------4--4--4---------|
D|--0-0-0-0-0-0-0-0---4--4--4---2-----|
A|--0-0-0-0-0-0-0-0---2--2--2---2(x7)-|
E|--0-0-0-0-0-0-0-0-------------2-----|

(1:18) Verse B
E|-------------------------------------------9------5---------------------------------------2-------2--|
B|-------------------------------------------10(x4)-7(x4)-----------------------------------2-------2--|
G|-------------------------------------------11-----7-------------------------------------2-2---4-4-4--|
D|--7-----------7-6---------4-6-4--------------------------7------------7-6-------------0-------4------|
A|------------------------7-------------------------------------------------------------0-------2------|
E|----4-4-4-4-4-----4-4-4---------4-4-4-4-4------------------4-4-4-4-4------4-4-4-4-4---0--------------|

E|-------------------------------------------------------------------------------------------|
B|-------------------------------------------------------------------------------------------|
G|-------------------------------------------------------------------------------------------|
D|--7-----------7-6---------------------------4h7p4-------6-7-4------------4-6---------------|
A|--------------------------------------------------7p4--------------------------------------|
E|----4-4-4-4-4-----4-4-4-444-2-4-2-4-2-4-4-4-----------6-------4-4-4-4-4-------4-4-4-4-4-4--|

(1:36) "Are we too blind to see through honest eyes?"

[Lead]
E|--------------------------------9-------------9-------|
B|-------7--------7-----------12----12------12----12----|
G|--6---------6-----------11------------11--------------|
D|-----7---7----7---7-----------------------------------| x2
A|------------------------------------------------------|
E|------------------------------------------------------|

[Rhyhtm]
E|--2-2-2-2-2-2-2-2-------------------|
B|--2-2-2-2-2-2-2-2--2-2-2-2-2-2-2-2--|
G|--2-2-2-2-2-2-2-2--4-4-4-4-4-4-4-4--|
D|--0-0-0-0-0-0-0-0--4-4-4-4-4-4-4-4--| x2
A|--0-0-0-0-0-0-0-0--2-2-2-2-2-2-2-2--|
E|--0-0-0-0-0-0-0-0-------------------|

(1:46) Break]
E|---------------------------------------------------|
B|---------------------------------------------------|
G|---------------------------------------------------|
D|---------------------------------------------------|
A|--4-4-4--4-4-4--4-4-4--4-4-4--4-4-4--4-4-4--4-4-4--|
E|--4-4-4--4-4-4--4-4-4--4-4-4--4-4-4--4-4-4--4-4-4--|

(1:52)["Tear the borders break the walls"]
E|------------------------------------------------------2-----2-------------------------------2------|
B|----------------------------------------------------2-2---2-2-----------------------------2-2------|
G|----------------------------------------------------2-2---2-2-----------------------------2-2------|
D|--0----0-0----0----0-0----------------------------0-----0-------------------------------0-------2--|
A|--0----0-0----0----0-0----------------------------0-----0-------------------------------0-------2--|
E|--0----0-0----0----0-0---4(x4)-6(x4)-7(x4)-9(x4)--0-----0------4(x4)-5(x4)-7(x4)-9(x4)--0-------2--|

(2:07)[Lead Solo Part]
E|--14----------17---16h17--14----------17p16-17p16--14-----------17----16h17--14-------17/19\17--12-----|
B|-----------------14------------------------------------------------14-----------17-14--------------14--|
G|-----14-13\11----------------14-13\11-----------------14-13\11-----------------------------------------|
D|-------------------------------------------------------------------------------------------------------|
A|-------------------------------------------------------------------------------------------------------|
E|-------------------------------------------------------------------------------------------------------|

E|--14----------17---16h17--14----------17p16--------14-----------17----16h17--| x2
B|-----------------14-------------------------17p14------------------14--------|
G|-----14-13\11----------------14-13\11-----------------14-13\11---------------|
D|-----------------------------------------------------------------------------|
A|-----------------------------------------------------------------------------|
E|-----------------------------------------------------------------------------|

[Rhythm Part]
E|--------------------------------------------------------------------------------|
B|--------------------------------------------------------------------------------|
G|--------------------------------------------------------------------------------|
D|--0---0---0----------0---0---4-4-4-2-2--0---0---0--------------------4----------|
A|--0---0---0---0(x8)--0---0---4-4-4-2-2--0---0---0---0(x8)--0----0----4----4-2---|
E|--0---0---0---0------0---0---4-4-4-2-2--0---0---0---0------0----0----4----4-2---|

(2:27)[Verse 2]
E|-------------------------------------------9------5---------------------------------------2-------2--|
B|-------------------------------------------10(x4)-7(x4)-----------------------------------2-------2--|
G|-------------------------------------------11-----7-------------------------------------2-2---4-4-4--|
D|--7-----------7-6---------4-6-4--------------------------7------------7-6-------------0-------4------|
A|------------------------7-------------------------------------------------------------0-------2------|
E|----4-4-4-4-4-----4-4-4---------4-4-4-4-4------------------4-4-4-4-4------4-4-4-4-4---0--------------|

E|-------------------------------------------------------------------------------------------|
B|-------------------------------------------------------------------------------------------|
G|-------------------------------------------------------------------------------------------|
D|--7-----------7-6---------------------------4h7p7-------6-7-4------------4-6---------------|
A|--------------------------------------------------7p4--------------------------------------|
E|----4-4-4-4-4-----4-4-4-444-2-4-2-4-2-4-4-4-----------6-------4-4-4-4-4-------4-4-4-4-4-4--|

(2:46)[Pre Breakdown]
Lead
E|--------------------------------9-------------9-------|
B|-------7--------7-----------12----12------12----12----|
G|--6---------6-----------11------------11--------------|
D|-----7---7----7---7-----------------------------------|
A|------------------------------------------------------|
E|------------------------------------------------------|

E|------------------------|
B|-------7--------7-------|
G|--6---------6-----------|
D|-----7---7----7---7-----|
A|------------------------|
E|------------------------|

[Rhythm]
E|--2-2-2-2-2-2-2-2-------------------|
B|--2-2-2-2-2-2-2-2--2-2-2-2-2-2-2-2--|
G|--2-2-2-2-2-2-2-2--4-4-4-4-4-4-4-4--|
D|--0-0-0-0-0-0-0-0--4-4-4-4-4-4-4-4--|
A|--0-0-0-0-0-0-0-0--2-2-2-2-2-2-2-2--|
E|--0-0-0-0-0-0-0-0-------------------|
                                         (2:59)
E|--2-2-2-2-2-2-2-2---------------------------------------|
B|--2-2-2-2-2-2-2-2---------------------------------------|
G|--2-2-2-2-2-2-2-2--4b-----------------------------------|
D|--0-0-0-0-0-0-0-0--4b-----------------------------------|
A|--0-0-0-0-0-0-0-0--2b-------------------4--4---4--------|
E|--0-0-0-0-0-0-0-0-----------------------4--4---4-4h5p4--|

(3:04)[Oli Sykes Breakdown]
E|---------------------------------------21-------------------------2--2--2--2--|
B|-----------------------------------------22-----------------------2--2--2--2--|
G|-------------------------------------------19---------------------2--2--4--4--|
D|------------------------------------------------------------------0--0--4--4--| x2
A|--4-4--4-----------2--4-4---4-----------------4-4--4--------------0--0--2--2--|
E|--4-4--4-4h5p4-5p4-2--4-4---4-4h5p4-----------4-4--4-4h5p4-5p4-2--0--0--------|

(3:25) Quiet Break 
[Lead]
E|-----------------------------------------------------------------|
B|--------------------------------------------------------------7--|
G|-------------------------------6---------------------------------|
D|-7-6-7-6-7-6-7-6-7-6-7-6-7-6-7--7-6-7-6-7-6-7-6-7-6-7-6-7-6-7----|
A|-----------------------------------------------------------------|
E|-----------------------------------------------------------------|

E|---------------------------------------------------------------------|
B|------------------------------------------------------------0---7----|
G|-------4-6-4------------1-2-1------------4-6-4------6-7-6-4---6---6--|
D|-4-6-7-------7-6--4-2-4-------4-2----6-7-------7-6-------------------|
A|-----------------------------------4---------------------------------|
E|---------------------------------------------------------------------|

[Rhythm]
E|-------------------------------------------------|
B|-------------------------------------------------|
G|--11-------7------9------11------4-------7-------|
D|--11-------7------9------11------4-------7-------|
A|--9--------5------7------9-------2-------5-------|
E|-------------------------------------------------|

E|---------------------------------------|
B|---------------------------------------|
G|--11-------7------9------11------10----|
D|--11-------7------9------11------10----|
A|--9--------5------7------9-------8-----|
E|---------------------------------------|

(3:45) "The longer I live, I learn that we don't belong"
E|----------------| E|---------------|
B|----------------| B|---------------|
G|--11----9----7--| x3 G|--11-----10----|
D|--11----9----7--| D|--11-----10----|
A|--9-----7----5--| A|--9------8-----|
E|----------------| D|---------------|

(4:06) Solo Part A
[Lead]
E|--7h9--7h9--7h9--7h9--5~7p5----7h9--7h9--7h9--5-5-5-5-7p5--7p5---|
B|----------------------------5-----------------------------5----5-|
G|-----------------------------------------------------------------|
D|-----------------------------------------------------------------|
A|-----------------------------------------------------------------|
E|-----------------------------------------------------------------|

E|--7h9--7h9--7h9--7h9--5~7p5----7h9--7h9--9h12--9h12-7p5--7p5----|
B|----------------------------5---------------------------5----5--|
G|----------------------------------------------------------------|
D|----------------------------------------------------------------|
A|----------------------------------------------------------------|
E|----------------------------------------------------------------|

E|--7h9--7h9--7h9--7h9--5~7p5----7h9--7h9--7h9--5-5-5-5-7p5--7p5---|
B|----------------------------5-----------------------------5----5-|
G|-----------------------------------------------------------------|
D|-----------------------------------------------------------------|
A|-----------------------------------------------------------------|
E|-----------------------------------------------------------------|

E|--7h9--7h9--7h9--7h9--5~7p5----7h9--7h9--7h9--5~7p5----7p5--7p5--7p5--7p5--7p5--7p5---|
B|----------------------------5-----------------------5-----5----5----5----5----5----5--|
G|--------------------------------------------------------------------------------------|
D|--------------------------------------------------------------------------------------|
A|--------------------------------------------------------------------------------------|
E|--------------------------------------------------------------------------------------|
         
[Rhythm]
E|--------------------------| E|---------------------------|
B|--------------------------| B|---------------------------|
G|--------------------------| G|---------------------------|
D|--0-0-0-0-0---4-4-4--2-2--| x3 D|--0-0-0-0-0---4-4-4-4-4-4--|
A|--0-0-0-0-0---4-4-4--2-2--| A|--0-0-0-0-0---4-4-4-4-4-4--|
E|--0-0-0-0-0---4-4-4--2-2--| D|--0-0-0-0-0---4-4-4-4-4-4--|

(4:26)[Solo Part B]
[Lead]
E|--12h14--12h14--12h14--12h14--17p16p14----14-12h14-12h14-12h14-19p17p16-14\12-14p12----12---|
B|---------------------------------------17-------------------------------------------14------|
G|--------------------------------------------------------------------------------------------|
D|--------------------------------------------------------------------------------------------|
A|--------------------------------------------------------------------------------------------|
E|--------------------------------------------------------------------------------------------|

E|--12h14--12h14--12h14--12h14--17p16p14----14--16--17--19--|
B|---------------------------------------17-----------------|
G|----------------------------------------------------------|
D|----------------------------------------------------------|
A|----------------------------------------------------------|
E|----------------------------------------------------------|

[Rhythm]
                                   (4:37)
E|--------------------------| E|-------|
B|--------------------------| B|-------|
G|--------------------------| G|-------|
D|--0-0-0-0-0---4-4-4--2-2--| x2 D|--0~~--| - This rings out untiL end of song
A|--0-0-0-0-0---4-4-4--2-2--| A|--0~~--|
E|--0-0-0-0-0---4-4-4--2-2--| D|--0~~--|

(4:37) End

Lead
                               (4:37)                            *Reverb background noise at very end of song
E|--17---16---14---------------*10---12---9------5--7---9---4--------|
B|-------------------------------------------------------------------|
G|-------------------------------------------------------------------|
D|-------------------------------------------------------------------|
A|-------------------------------------------------------------------|
E|-------------------------------------------------------------------|

************************************

| ~  Vibrato
| h  Hammer-on
| p  Pull-off
| /  Slide up
| \  Slide down
| b  Bend
| *  Natural harmonic
Otros videos de esta canción
    140 exhibiciones
      • ½ Tono
      • Am
      • Bbm
      • Bm
      • Cm
      • C#m
      • Dm
      • Ebm
      • Em
      • Fm
      • F#m
      • Gm
      • G#m
    • Agregar a la lista

    Afinación de cifrado

    Afinador online

      OK