Cifra Club

So What

While She Sleeps

Cifrado: Principal (guitarra y guitarra eléctrica)
Selo Cifra Club: esta cifra foi revisada para atender aos critérios oficiais da nossa Equipe de Qualidade.
tono: D
Intro
E|----------------------------------------|
B|----------------------------------------|
G|----------------------------------------|
D|--7--7--7-7--3-3-3--5--5-5-5--5-5-5-----|
A|--5--5--5-5--1-1-1--3--3-3-3--5-5-5-----|
E|------------------------------5-5-5-----| 5x

The sixth time they play this
E|----------------------------------------|
B|----------------------------------------|
G|----------------------------------------|
D|--7--7--7-7--3-3-3-3--------------------|
A|--5--5--5-5--1-1-1-1--------------------|
E|----------------------------------------|

Intro Lead guitar goes something like this
E|---------------------------|----------------------------------|
B|---------------------------|----------------------------------|
G|-----------14--------------|------------14-----------15-14----|
D|-12----12------12-15-------|---12----12----12-15--------------|
A|---------------------------|----------------------------------|
E|---------------------------|----------------------------------|

E|---------------------------|----------------------------------|
B|---------------------------|-------------------------13-------|
G|-----------14--------------|------------14--------------12/14-|
D|-12----12------12-15-------|---12----12----12-15--------------|
A|---------------------------|----------------------------------|
E|---------------------------|----------------------------------|

E|---------------------------|----------------------------------|
B|---------------------------|----------------------------------|
G|-----------14--------------|------------14----15--------------|
D|-12----12------12-15-------|---12----12----12-----------------|
A|---------------------------|----------------------------------|
E|---------------------------|----------------------------------|

Riff 1
E|------------------10------------------|------------------------------------|
B|------------------10------------------|-------------------15---------------|
G|------------------10------------------|----------------------12-14---------|
D|--------------------------------------|-----------------------------14-15~-|
A|--------------------------------------|------------------------------------|
E|--0-12-0-10-12-0-----0-12-12-10-14-12-|-0-12-0-10-12-10-0------------------|

E|------------------10--------------------|----------------------------------|
B|------------------10--------------------|----------------------------------|
G|------------------10--------------------|----------------------------------|
D|----------------------------------------|----------------------------------|
A|-------------------------13-13-13-13-12-|----------------------------------|
E|--0-12-0-10-12-0-----0-0----------------|--0-0-12-0-0----------------------|

Lyric: Let's die together!

Riff 2
E|------------------10------------------|------------------------------------|
B|------------------10------------------|-------------------15---------------|
G|------------------10------------------|----------------------12-14---------|
D|--------------------------------------|-----------------------------14-15~-|
A|--------------------------------------|------------------------------------|
E|--0-12-0-10-12-0-----0-12-12-10-14-12-|-0-12-0-10-12-10-0------------------|

E|------------------10--------------------|----------------------------------|
B|------------------10--------------------|----------------------------------|
G|------------------10--------------------|----------------------------------|
D|----------------------------------------|----------------------------------|
A|-------------------------13-13-13-13-12-|----------------------------------|
E|--0-12-0-10-12-0-----0-0----------------|-0--0-0-12-0-0-0--0-3-0-3-5-------|

E|------------------10------------------|------------------------------------|
B|------------------10------------------|-------------------15---------------|
G|------------------10------------------|----------------------12-14---------|
D|--------------------------------------|-----------------------------14-15~-|
A|--------------------------------------|------------------------------------|
E|--0-12-0-10-12-0-----0-12-12-10-14-12-|-0-12-0-10-12-10-0------------------|

E|------------------10--------------------|----------------------------------|
B|------------------10--------------------|----------------------------------|
G|------------------10--------------------|----------------------------------|
D|-------------------------10-10-10-10-12-|----------------------------------|
A|-------------------------10-10-10-10-12-|----------------------------------|
E|--0-12-0-10-12-0-----0-0-10-10-10-10-12-|-0--0-0-12-0-0-0--0-3-0-3-5-------|

Verse 1
E|-------------------------------|----------------------------------------|
B|-------------------------------|----------------------------------------|
G|------7-----7-----7-----7----7-|-----7-----7-----------7----------------|
D|----7-----7-----7-----7----7---|---5-----5-----5-----7---7--------------|
A|--5-----5-----5-----5-----5----|-3-----3-----3-----5---------7h8p7/5/3--|
E|-------------------------------|----------------------------------------|

Then they play the same thing except for the slide 
E|-------------------------------|----------------------------------------|
B|-------------------------------|----------------------------------------|
G|------7-----7-----7-----7----7-|-----7-----7-----------7----------------|
D|----7-----7-----7-----7----7---|---5-----5-----5-----7---7--------------|
A|--5-----5-----5-----5-----5----|-3-----3-----3-----5---------7h8p7/3/5--|
E|-------------------------------|----------------------------------------|

Palm muted part 
E|-----------------------------------|-----------------------------------|
B|-----------------------------------|-----------------------------------|
G|--7-7-7-7-7-7--5-5-5-5-5-5-5-5-5-5-|-3-3-3-3---------------------------|
D|--7-7-7-7-7-7--5-5-5-5-5-5-5-5-5-5-|-3-3-3-3-----3-3-3-3-3-3-3-3-3-3---|
A|--5-5-5-5-5-5--3-3-3-3-3-3-3-3-3-3-|-1-1-1-1-1h3-3-3-3-3-3-3-3-3-3-3---|
E|-----------------------------------|-------------3-3-3-3-3-3-3-3-3-3---|

Pre chorus
E|----------------------------------------|
B|----------------------------------------|
G|----------------------------------------|
D|--7--7--7-7--3-3-3--5--5-5-5--5-5-5-----|
A|--5--5--5-5--1-1-1--3--3-3-3--5-5-5-----|
E|------------------------------5-5-5-----|

Chorus
E|---------------------|-----------------------|
B|---------------------|-----------------------|
G|--7-7-7-7--3-3-3-3-3-|-5-5-5-5-5-------------|
D|--7-7-7-7--3-3-3-3-3-|-5-5-5-5-5-5-5-5-5-5---|
A|--5-5-5-5--1-1-1-1-1-|-3-3-3-3-3-5-5-5-5-5---|
E|---------------------|-----------5-5-5-5-5---| 4x

Lead part
E|--------------------------------------------|
B|-------------------------------16b-16b-15~--|
G|--------------------------------------------|
D|--------------------------------------------|
A|--------------------------------------------|
E|--------------------------------------------|

Verse 2
Palm mute
E|------------------------------------|-----------------------------|
B|------------------------------------|--------------------------~--|
G|------------------------------------|-----------------------------|
D|------------------------------------|-----------------------------|
A|--5-5-5-5-5-5-5-5-5-5-5-5-5-7-7-7-7-|-5-5-5-5-5-5-5-5-5-5-5-5-5---|
E|------------------------------------|-----------------------------|

Lyric: If we dont let go!

E|-------------------------------|----------------------------------------|
B|-------------------------------|----------------------------------------|
G|------7-----7-----7-----7----7-|-----7-----7-----------7----------------|
D|----7-----7-----7-----7----7---|---5-----5-----5-----7---7--------------|
A|--5-----5-----5-----5-----5----|-3-----3-----3-----5---------7h8p7/5/3--|
E|-------------------------------|----------------------------------------|

Then they play the same thing except for the slide 
E|-------------------------------|----------------------------------------|
B|-------------------------------|----------------------------------------|
G|------7-----7-----7-----7----7-|-----7-----7-----------7----------------|
D|----7-----7-----7-----7----7---|---5-----5-----5-----7---7--------------|
A|--5-----5-----5-----5-----5----|-3-----3-----3-----5---------7h8p7/3/5--|
E|-------------------------------|----------------------------------------|

Play these two sections 2 times

Palm muted part 
E|-----------------------------------|-----------------------------------|
B|-----------------------------------|-----------------------------------|
G|--7-7-7-7-7-7--5-5-5-5-5-5-5-5-5-5-|-3-3-3-3---------------------------|
D|--7-7-7-7-7-7--5-5-5-5-5-5-5-5-5-5-|-3-3-3-3-----3-3-3-3-3-3-3-3-3-3---|
A|--5-5-5-5-5-5--3-3-3-3-3-3-3-3-3-3-|-1-1-1-1-1h3-3-3-3-3-3-3-3-3-3-3---|
E|-----------------------------------|-------------3-3-3-3-3-3-3-3-3-3---| 2x

E|-----------------------------------|-----------------------------------|
B|-------------------------------~---|-----------------------------------|
G|-----------------------------------|-----------------------------------|
D |-0-0-0-0-0-0-0-0-0-0-0-0-0-0-0-0-0-|-0-0-0-0-0-0-0-0-0-0-0-0-0-0-0-0-0-|
A |-0-0-0-0-0-0-0-0-0-0-0-0-0-0-0-0-0-|-0-0-0-0-0-0-0-0-0-0-0-0-0-0-0-0-0-|
D |-0-0-0-0-0-0-0-0-0-0-0-0-0-0-0-0-0-|-0-0-0-0-0-0-0-0-0-0-0-0-0-0-0-0-0-|

Lead
E|----6----6----6----6----6----6----6-|----6-----18----18---18----18----18--|
B|-10---10---10---10---10---10---10---|-10----22----22----22---22----22-----|
G|------------------------------------|-------------------------------------|
D|------------------------------------|-------------------------------------|
A|------------------------------------|-------------------------------------|
E|------------------------------------|-------------------------------------|

Break
E|----------------------------|---------------------------------|
B|----------------------------|---------------------------------|
G|-----------14---------------|-----------14----------15-15-14--|
D|-12------------12-15--------|--12----------12-15--12----------|
A|----------------------------|---------------------------------|
E|----------------------------|---------------------------------|

E|----------------------------|---------------------------------|
B|----------------------------|------------------------13-------|
G|-----------14---------------|-----------14--------------12/14-|
D|-12------------12-15--------|--12----------12-15--------------|
A|----------------------------|---------------------------------|
E|----------------------------|---------------------------------|

E|----------------------------|---------------------------------|
B|----------------------------|---------------------------------|
G|-----------14---------------|-----------14----------15-15-14--|
D|-12------------12-15--------|--12----------12-15--12----------|
A|----------------------------|---------------------------------|
E|----------------------------|---------------------------------|

E|----------------------------|---------------------------------|
B|----------------------------|---------------------------------|
G|-----------14---------------|-----------14--------------------|
D|-12------------12-15--------|--12----------12-15--------------|
A|----------------------------|---------------------------------|
E|----------------------------|---------------------------------|

Lyrics: You only wrote this for the money, didn't you?

Breakdown
E|-------------------------|------------------------------|
B|-------------------------|---------------------------~--|
G|-------------------------|------------------------------|
D|-0-0-0-0-3-0-0-0-0-2-0-0-|-0-0-3-0-0-0-0--5-3-2-0-2-----|
A|-0-0-0-0-3-0-0-0-0-2-0-0-|-0-0-3-0-0-0-0------------3---|
E|-0-0-0-0-3-0-0-0-0-2-0-0-|-0-0-3-0-0-0-0----------------|

E|-----------------------|-------------------------------|
B|-----------------------|----------------------------~--|
G|-----------------------|-------------------------------|
D |-0-0-0-0-3-0-0-0-0-5-3-|-10-10-10-10-12-8-8-8-10-5-3-5-|
A |-0-0-0-0-3-0-0-0-0-5-3-|-10-10-10-10-12-8-8-8-10-5-3-5-|
D |-0-0-0-0-3-0-0-0-0-5-3-|-10-10-10-10-12-8-8-8-10-5-3-5-|

Pre chorus
E|-------------------|---------------------|
B|-------------------|---------------------|
G|-------------------|---------------------|
D|--7--7--7-7--3-3-3-|-5--5-5-5--5-5-5-----|
A|--5--5--5-5--1-1-1-|-3--3-3-3--5-5-5-----|
E|-------------------|-----------5-5-5-----| 4x

E|--------------------|---------------------|
B|--------------------|---------------------|
G|--10-10-10-10-10-10-|-10-10-10-10-10-10---|
D|--12-12-12-12-12-12-|-12-12-12-12-12-12---|
A|--------------------|---------------------|
E|--------------------|---------------------|

Chorus
E|---------------------|-----------------------|
B|---------------------|-----------------------|
G|--7-7-7-7--3-3-3-3-3-|-5-5-5-5-5-------------|
D|--7-7-7-7--3-3-3-3-3-|-5-5-5-5-5-5-5-5-5-5---|
A|--5-5-5-5--1-1-1-1-1-|-3-3-3-3-3-5-5-5-5-5---|
E|---------------------|-----------5-5-5-5-5---| 8x

Lead part
E|--------------------------------------------|
B|-------------------------------16b-16b-15~--|
G|--------------------------------------------|
D|--------------------------------------------|
A|--------------------------------------------|
E|--------------------------------------------|

E|----------------------|----------------------|
B|----------------------|---------16b-16b-15~--|
G|---12----12-----12h14~|----------------------|
D|------15----15--------|----------------------|
A|----------------------|----------------------|
E|----------------------|----------------------|

Outro
Riff 1
E|------------------10------------------|------------------------------------|
B|------------------10------------------|-------------------15---------------|
G|------------------10------------------|----------------------12-14---------|
D|--------------------------------------|-----------------------------14-15~-|
A|--------------------------------------|------------------------------------|
E|--0-12-0-10-12-0-----0-12-12-10-14-12-|-0-12-0-10-12-10-0------------------|

E|------------------10--------------------|----------------------------------|
B|------------------10--------------------|----------------------------------|
G|------------------10--------------------|----------------------------------|
D|----------------------------------------|----------------------------------|
A|-------------------------13-13-13-13-12-|----------------------------------|
E|--0-12-0-10-12-0-----0-0----------------|--0-0-12-0-0----------------------|


Lyric: Let's die together!

Riff 1
E|------------------10------------------|------------------------------------|
B|------------------10------------------|-------------------15---------------|
G|------------------10------------------|----------------------12-14---------|
D|--------------------------------------|-----------------------------14-15~-|
A|--------------------------------------|------------------------------------|
E|--0-12-0-10-12-0-----0-12-12-10-14-12-|-0-12-0-10-12-10-0------------------|

E|------------------10--------------------|----------------------------------|
B|------------------10--------------------|----------------------------------|
G|------------------10--------------------|----------------------------------|
D|----------------------------------------|----------------------------------|
A|-------------------------13-13-13-13-12-|----------------------------------|
E|--0-12-0-10-12-0-----0-0----------------|---0-0-12-0--0--0-----------------|


=================================================

p = Pull off
x = Dead note 
/ = Slide
b = Bend note 
r = Release note 
~ = Vibrato 
Otros videos de esta canción
    20 exhibiciones
      • ½ Tono
      • A
      • Bb
      • B
      • C
      • Db
      • D
      • Eb
      • E
      • F
      • F#
      • G
      • Ab
    • Agregar a la lista

    Afinación de cifrado

    Afinador online

      OK