Cifra Club

The Chapel

While She Sleeps

Cifrado: Principal (guitarra y guitarra eléctrica)
Selo Cifra Club: esta cifra foi revisada para atender aos critérios oficiais da nossa Equipe de Qualidade.
tono: Eb
E|-13---11-10-----10-10-11-10----|---13---11-10-----10-10-11-|
B|-----------11--------------11--|-------------11------------|
G|-------------12---12-12------12|---------------12---12-12--|
D|-------------------------------|---------------------------|
A|-------------------------------|---------------------------|
E|-------------------------------|---------------------------|

E|-13---11-10-----10-10-11-10----| 11-11-11-10-10-10-10/15-15-15-15\8~-|
B|-----------11--------------11--|------------------------------------|
G|-------------12---12-12------12|------------------------------------|
D|-------------------------------|------------------------------------|
A|-------------------------------|------------------------------------|
E|-------------------------------|------------------------------------|
Otros videos de esta canción
    3 exhibiciones
      • ½ Tono
      • A
      • Bb
      • B
      • C
      • Db
      • D
      • Eb
      • E
      • F
      • F#
      • G
      • Ab
    • Agregar a la lista

    Afinación de cifrado

    Afinador online

      OK