Cifra Club

Broken Heart

White Lion

Tablatura: Principal (guitarra)
Tom: A
verses

e|--4---------2----------------------------------------------------------------|
B|--4---------2----------------------------------------------------------------|
G|--2---------4----------------------------------------------------------------|
D|--2---------4----------------------------------------------------------------|
A|--4---------2----------------------------------------------------------------|
E|--4---------2----------------------------------------------------------------|
here i stand all alone.....



e|----5------------4--------------2---------------------------------------------|
B|----5------------4--------------2---------------------------------------------|
G|----7------------6--------------4---------------------------------------------|
D|----7------------6--------------4---------------------------------------------|
A|----5------------4--------------2---------------------------------------------|
E|----5------------4--------------2---------------------------------------------|
i knew that life would be much better......

reproducciones 316
Acordes para:
    Composição: Mike Tramp / Vito Bratta

    0 comentarios

    mostrar más comentarios

    ¿Conseguiste tocar?

    1 tocaron 1 aún no

    ¡Graba un vídeo tocando Broken Heart y envianoslo!

    00:00 / 00:00
    outros vídeos desta música
    repetir qualidade Automático
    Outros vídeos desta música
    00:00 / 00:00
    Automático
    OK