Cifra Club

Radar Love

White Lion

Tablatura: Principal (guitarra)
Tom: C#
E|---------------------------------------------------------------|
B|---------------------------------------------------------------|
G|----------------------------------2~-------4~9~~~~~~~~~~~~~~~--|
D|--2~4v~~~~~~~---2~------------2~4~--2v~~~2~4~9~~~~~~~~~~~~~~~--|
A|4~------------4~--2v~~~~~~~-4~-----------0~2~7~~~~~~~~~~~~~~~--|
E|---------------------------------------------------------------|

E|---------------------------------------------------------------|
B|---------------------------------------------------------------|
G|9~~~~~~~~--9~~~~~~~~--11~~~~~~~~~~~~~~~~--9~~~~~~~~--11~~~~~~~~|
D|9~~~~~~~~--9~~~~~~~~--11~~~~~~~~~~~~~~~~--9~~~~~~~~--11~~~~~~~~|
A|---------------------------------------------------------------|
E|---------------------------------------------------------------|

E|------------------|
B|--11~~~~~~~~------|
G|--11~~~~~~~~--11--|
D|-----------------9|
A|------------------|
E|------------------|

(verso 1)
“I’ve been drivin’ all night my hands’re wet on the wheel…"
E|--------------|
B|7-5-4-2-5-4/2~|
G|6-4-4-2-4-4/2~|
D|--------------|
A|--------------|
E|--------------|
“There’s a voice in my head that drives my heel…"
E|-------------------|
B|16~-----16-14------|
G|16~14v~-16-14------|
D|---------------16v~|
A|-------------------|
E|-------------------|
“And my baby calls, she says she needs me here!"
E|-----------------|
B|-----------------|
G|-----------------|
D|---2-------------|
A|-----4-3-2-------|
E|0h2-2-0-0-0-5b6r5|
“And it’s half past four and I’m shifting gear"
E|-----------------------------|
B|16161614--16161614--99911----|
G|16161614--16161614--99911----|
D|--------------------------9/0|
A|--------------------------9/0|
E|-----------------------------|

(pré-refrão)

E|-----------------------------------------|
B|-----------------------------------------|
G|----4~~~-------------------4~~~4~4~6~~6~~|
D|2~~~4~~~4~~~-------16v-2~~~4~~~4~4~6~~6~~|
A|2~~~2~~~4~~~----16-----2~~~2~~~2~2~4~~4~~|
E|0~~~----2~~~-14--------0~~~--------------|

(refrão)

E|----------------------------|
B|----------------------------|
G|7~~~------------7~~~--------|
D|7~~~7~~~2~~~4~~~7~~~7~~~2~~~|
A|5~~~7~~~2~~~4~~~5~~~7~~~2~~~|
E|----5~~~0~~~2~~~----5~~~0~~~|

E|----------------------------------------|
B|----------------------------------------|
G|9~~~~~~~~--9~~~~~~~~--11~~~~~~~~~~~~~~~~|
D|9~~~~~~~~--9~~~~~~~~--11~~~~~~~~~~~~~~~~|
A|----------------------------------------|
E|----------------------------------------|

(verso 2)
“Radio’s playin’ some forgotten song…"
E|-------------------|
B|-----10------------|
G|x7h9x--4--5--9b10r9|
D|-------------------|
A|-------------------|
E|-------------------|
“Brenda Lee’s comin’ on strong…"
E|--------------------------------------|
B|--------------------------------------|
G|--------------------------------------|
D|9-9p7---16b17r16--14b15r14--12b13r12~~|
A|--------------------------------------|
E|--------------------------------------|
“The road has got me hypnotized…"
E|12p10h12/10p8h10/8p6h8|
B|----------------------|
G|----------------------|
D|----------------------|
A|----------------------|
E|----------------------|
“And I’m spinning into a new sunrise!"
E|---------|
B|16~~~----|
G|16~~~----|
D|------9/0|
A|------9/0|
E|---------|

(pré-refrão)

E|--------------------------------------|
B|--------------------------------------|
G|----4~~~-------------------4~~~6~6~6~6|
D|2~~~4~~~4~~~-------16v-2~~~4~~~6~6~6~6|
A|2~~~2~~~4~~~----16-----2~~~2~~~4~4~4~4|
E|0~~~----2~~~-14--------0~~~-----------|

(refrão)

E|----------------------------|
B|----------------------------|
G|7~~~------------7~~~--------|
D|7~~~7~~~2~~~4~~~7~~~7~~~2~~~|
A|5~~~7~~~2~~~4~~~5~~~7~~~2~~~|
E|----5~~~0~~~2~~~----5~~~0~~~|

(solo de guitarra 1)
* Slowly liberação como você escorregar *
E|------------|---10-9 -10-12-10-9 -9h10bp9---10-9 -10-12-10-9 -9h10----|bp9
B|----------7B|11-11-11-11-11-11-11--------11-11-11-11-11-11-11---------|
G|6B~---------|---------------------------------------------------------|
D|6B~*5B*~/0--|---------------------------------------------------------|
A|------------|---------------------------------------------------------|
E|------------|---------------------------------------------------------|

E|--8-7-8-10-8-7-7h8bp9--8-7-8-10-8-7-7h8bp9---12-11-12-14-12-11-11h12b-|
B|9-9-9-9-9 -9-9-------9-9-9-9-9 -9-9-------13-13-13-13-13-13-13--------|
G|----------------------------------------------------------------------|
D|----------------------------------------------------------------------|
A|----------------------------------------------------------------------|
E|----------------------------------------------------------------------|

E|p11---12-11-12-14-12-11-11h12bp11|mais por vir
B|---13-13-13-13-13-13-13----------|mais por vir
G|---------------------------------|mais por vir
D|---------------------------------|mais por vir
A|---------------------------------|mais por vir
E|---------------------------------|mais por vir
         (16th nota picking)
E|-------------------------------------------------------------------|
B|-------------------------------------------------------------------|
G|3/4-444444444444455555555555556666666666666777777777777-9b~~~~~~/0~
D|-------------------------------------------------------------------|
A|-------------------------------------------------------------------|
E|-------------------------------------------------------------------|

E|----------------|BATERIA DE PREENCHIMENTO|-------------------------------------|
B|----------------|BATERIA DE PREENCHIMENTO|-------------------------------------|
G|6-6-6-6-6-6-6~~~|BATERIA DE PREENCHIMENTO|-------------------------------------|
D|6-6-6-6-6-6-6~~~|BATERIA DE PREENCHIMENTO|-------------------------------------|
A|4-4-4-4-4-4-4~~~|BATERIA DE PREENCHIMENTO|----3-2~~-----2--------3-2~~-----2---|
E|----------------|BATERIA DE PREENCHIMENTO|2-5-------2-5---2--2-5-------2-5---2-|

E|----3-2h3p2h3p2h3p2h3p2h3-----2------3-2h3p2h3p2h3p2h3p2h3-----2--|
B|2-5-----------------------2-5----2-5-----------------------2-5----|
G|------------------------------------------------------------------|
D|------------------------------------------------------------------|
A|------------------------------------------------------------------|
E|------------------------------------------------------------------|

E|------------------------------------------------------------------|
B|------------------------------------------------------------------|
G|------------------------------------------------------------------|
D|------------2-3-4----------------------2~~~~~~~~~~~~~~~~~~~~~~~~~~|
A|----3-2-3-4-------4------3-2-3-4---2-4-2~~~~~~~~~~~~~~~~~~~~~~~~~~|
E|2-5------------------2-5---------5-----0~~~~~~~~~~~~~~~~~~~~~~~~~~|

E|-----------------|
B|-----------------|
G|9~~~~~~~~~~~~~~~~|
D|9~~~~~~~~~~~~~~~~|
A|-----------------|
E|-----------------|

(verso 3)
“No more speed I’m almost there…"
E|7-5-----5----------|
B|----7~8---7-5~~~~~~|
G|-------------------|
D|-------------------|
A|-------------------|
E|-------------------|
“Gotta’ keep cool now, gotta’ take care…"
E|-------------------|
B|-------------------|
G|7-5-3h5p3p2~-------|
D|-------------3/5~~~|
A|-------------------|
E|-------------------|
“Last car to pass, here I go…"
E|7h8B~~~~~~~~~~~~|
B|----------------|
G|----------------|
D|----------------|
A|----------------|
E|----------------|
“And the line of the cars goes down real slow…"
E|-----------------|
B|7h8~~~10p8p7~-3/5|
G|-----------------|
D|-----------------|
A|-----------------|
E|-----------------|
“And the radio played some forgotten song…"
E|--------------------------------|
B|5h7h8p7p5/3h5p3p0h2h3p2p0-------|
G|--------------------------2/1~~~|
D|--------------------------------|
A|--------------------------------|
E|--------------------------------|
“And Brenda Lee’s comin’ on strong…"
E|--------------------|
B|--------------------|
G|--------------------|
D|7-4-2---------------|
A|------3-2-2v~~~~~~~~|
E|--------------------|
“And the newsman sang his same song…"
E|12p11p9h11bp9h11bp9h11b12r11p9/7~|
B|---------------------------------|
G|---------------------------------|
D|---------------------------------|
A|---------------------------------|
E|---------------------------------|
“Oh, one more radar lover gone!"
E|11b/0--11b/0--11b/0--11b/0|
B|--------------------------|
G|--------------------------|
D|--------------------------|
A|--------------------------|
E|--------------------------|

(pré-refrão)

E|----------------------------------|
B|----------------------------------|
G|----4~~~-------------4~~4~~6~6~6~6|
D|2~~~4~~~4~~~3~~~-2~~~4~~2~~6~6~6~6|
A|2~~~2~~~4~~~3~~~-2~~~2~~2~~4~4~4~4|
E|0~~~----2~~~1~~~-0~~~-------------|

(refrão)

E|-------------------------------------------------------------------|
B|-------------------------------------------------------------------|
G|7~~~------------7~~~-------------------7~~~------------7~~~--------|
D|7~~~7~~~2~~~4~~~7~~~7~~~2~~~4-4-4-4-4-47~~~7~~~2~~~4~~~7~~~7~~~2~~~|
A|5~~~7~~~2~~~4~~~5~~~7~~~2~~~4-4-4-4-4-45~~~7~~~2~~~4~~~5~~~7~~~2~~~|
E|----5~~~0~~~2~~~----5~~~0~~~2-2-2-2-2-2----5~~~0~~~2~~~----5~~~0~~~|

(outro)

E|------------------------------------------3-2h3p2h3p2h3p2h3p2h3-----2-|
B|--------------------------------------2-5-----------------------2-5---|
G|----------------------------------------------------------------------|
D|----------------------------------------------------------------------|
A|----3-2~~-----2--------3-2~~-----2------------------------------------|
E|2-5-------2-5---2--2-5-------2-5---2----------------------------------|

E|----3-2h3p2h3p2h3p2h3p2h3-----2-----------------------------------|
B|2-5-----------------------2-5-------------------------------------|
G|------------------------------------------------------------------|
D|-------------------------------------3-2h3p2h3p2h3p2h3p2h3-----2--|
A|---------------------------------2-5-----------------------2-5---2|
E|------------------------------------------------------------------|
reproducciones 312
Acordes para:
    Composição: Barry Hay / George Kooymans Colaboración y revision:
    • Danilo Denadai

    0 comentarios

    mostrar más comentarios

    ¿Conseguiste tocar?

    4 tocaron 0 aún no

    ¡Graba un vídeo tocando Radar Love y envianoslo!

    00:00 / 00:00
    outros vídeos desta música
    repetir qualidade Automático
    Outros vídeos desta música
    00:00 / 00:00
    Automático
    OK