Cifra Club

Aprenda

Day Tripper

Whitesnake

Tablatura: Principal (guitarra)
tono: D
               Intro:
e----------------------|----------------------|----------------------|----------------------|
b----------------------|----------------------|----------------------|----------------------|
g----------------------|----------------------|----------------------|----------------------|
d-----------2-0---4----|-----------2-0--0-----|-----------2-0---4----|-----------2-0--------|
a---------2------------|---------2-------4----|---------2------------|---------2------------|
e-0---2-3--------------|-0---2-3--------------|-0---2-3--------------|-0---2-3--------------|
               Verso:
e----------------------|----------------------|----------------------|----------------------|
b----------------------|----------------------|----------------------|----------------------|
g----------------------|----------------------|-----------2-0---4----|----------------------|
d-----------2-0---4----|-----------2-0--0-----|---------2------------|-----------2-0--0-----|
a---------2------------|---------2-------4----|-0---2-3--------------|---------2-------4----|
e-0---2-3--------------|-0---2-3--------------|----------------------|-0---2-3--------------|
               Depois do 1º refrão:
e----------------------|----------------------|----------------------|----------------------|
b----------------------|----------------------|----------------------|----------------------|
g----------------------|----------------------|----------------------|----------------------|
d-----------2-0---4----|-----------2-0--0-----|-----------2-0---4----|-----------2-0--------|
a---------2------------|---------2-------4----|---------2------------|---------2------------|
e-0---2-3--------------|-0---2-3--------------|-0---2-3--------------|-0---2-3--------------|
               Depois dos outros refrões:
e----------------------|----------------------|----------------------|----------------------|
b----------------------|----------------------|----------------------|----------------------|
g----------------------|----------------------|-----------2-0~-------|-----------2-0~-------|
d-----------2-0~-------|-----------2-0~-------|---------2------------|---------2------------|
a---------2------------|---------2------------|-0---2-3--------------|-0---2-3--------------|
e-0---2-3--------------|-0---2-3--------------|----------------------|----------------------|
Composição de John Lennon / Paul McCartney
Colaboración y revision:
  • Giancarlo Francesco
141 reproducciones
    • ½ Tono
    • A
    • Bb
    • B
    • C
    • Db
    • D
    • Eb
    • E
    • F
    • F#
    • G
    • Ab
  • Adicionar à lista

    0 comentarios

    Ver todos os comentários

    ¿Conseguiste tocar?

    0 Tocaram 0 Ainda não

    Grave um vídeo tocando Day Tripper e nos envie!

    00:00 / 00:00
    outros vídeos desta música
    repetir qualidade Automático
    Outros vídeos desta música
    00:00 / 00:00
    Automático
    OK