Cifra Club

Easy Does It

Whitesnake

Tablatura: Principal (guitarra)
Tom: E
      (Esus#4)
E |-0---0---0---0---0--0--0---0---0----------||
H |-0---0---0---0---0--0--0---0---0---------o||
G |-3---4---6---4---3--4--3---4---6---------o||
D |------------------------------------------||
A |-1---2---4---2---1--2--1---2---4----------||
E |-0---0---0---0---0--0--0---0---0----------||

During the verse there's some Am7 and Am6 shifts,
but I don't really know the exact phrasing. Use
these voicings:

        Am7: lowE: x02213 :highE
        Am6: lowE: x02212 :highE

During the chorus use the main riff.

When the distorted guitar enters use this variant of the main riff:

    (Esus#4)
E |---------------------------------------------------------||
H |--------------------------------------------------------o||
G |--------------------------------------------------------o||
D |-------------------------------------------------9--9-9--||
A |-------------------------------------------------7--7-7--||
E |-6-0-0-7-0-0-9-0-0-7-0-0-6-0-7-0-6-0-0-7-0-0-9---0--0-0--||
     p     p     p     p     p   p   p     p        >  > >
reproducciones 29
Acordes para:

    0 comentarios

    mostrar más comentarios

    ¿Conseguiste tocar?

    0 tocaron 0 aún no

    ¡Graba un vídeo tocando Easy Does It y envianoslo!

    00:00 / 00:00
    outros vídeos desta música
    repetir qualidade Automático
    Outros vídeos desta música
    00:00 / 00:00
    Automático
    OK