Enviar cifraEntrar

Here i Go Again

Whitesnake

Acordes: Principal
reproducciones 2.340
Tono: G
Primeira Parte:

No I don't know 
Where I'm going
But I sure know 
Where I've been
Hanging on the promises 
In songs of yesterday
And I've made up my mind
I ain't wasting no more time
Here I go again
Here I go again


Segunda Parte:

Though I keep searching for an answer
I never seem to find 
What I'm looking for
Lord, I pray you give me strength 
To carry on
'Cause I know what it means
To walk along 
                            C5  D5
The lonely street of dreams


Refrão:


   G5     C5     D5    ( C5   D5 )
E|------------------------------------------|
B|------------------------------------------|
G|--------5-5----7-7-----5----7-------------|   (2x)
D|-5-5----5-5----7-7-x\--5----7-------------|
A|-5-5----3-5----5-5-x\--3----5-------------|
E|-3-3---------------x\---------------------|


   G5     C5     D5      C5   B
E|------------------------------------------|
B|------------------------------------------|
G|--------5-5----7-7-----5------------------|
D|-5-5----5-5----7-7-x\--5------------------|
A|-5-5----3-5----5-5-x\--3----2b3r2---------|
E|-3-3---------------x\---------------------|


   A5               D5
E|------------------------------------------|
B|------------------------------------------|
G|---------5/7\5~---7------7~---------------|
D|-2-2-2-2-5/7\5~---7------7~---------------|
A|-0-0-0-0----------5--7/9------3-2---------|
E|------------------------------------------|


   A5               D5 ( C5   D5 )
E|------------------------------------------|
B|------------------------------------------|
G|---------5/7\5~---7----5----7-------------|
D|-2-2-2-2-5/7\5~---7----5----7-------------|
A|-0-0-0-0----------5----3----5-------------|
E|------------------------------------------|


 G5         C5        D5  ( C5  D5 )
Here I go again on my own
       G5            C5
Going down the only road 
            D5  ( C5  D5 )
I've ever known
         G5
Like a drifter 
       C5            D5  ( C5  B )
I was born to walk alone
A5                      D5  A5
   But I've made up my mind
                         D5  ( C5  D5 )
I ain't wasting no more time


Terceira Parte:

G5
   Just another heart In need of rescue

Waiting on love's sweet charity
               D/F#
And I'm gonna hold on 
         E5         C5  B
For the rest of my days
A5                        D5
   'Cause I know what it means
    A5
To walk along 
                       D5   ( C5  D5 )
The lonely street of dreams


Refrão:
 
 G5         C5        D5  ( C5  D5 )
Here I go again on my own
       G5             C5
Going down the only road 
            D5  ( C5  D5 )
I've ever known
         G5           C5
Like a drifter I was born 
          D5  ( C5  B )
To walk alone
A5                      D5  A5
   But I've made up my mind
                         D5
I ain't wasting no more time


Ponte:


E|------------------------------------------|
B|------------------5h7p5h7p...-5~~---------|
G|-7----------------------------------------|
D|-7------7h9p7-----------------------------|
A|-5--7/9-------9-7-------------------------|
E|------------------------------------------|


   P.M .      .        . . 

E|------------------------------0-----------|
B|------------------------------0-----------|
G|--------2-----2~~-------------0-----------|
D|--------2---------------------2-----------|
A|--------0---0-----------------2-----------|
E|-0-3-0---------------3-2-0--0-------------|


   P.M .                   . .

E|-------------0----0---------------0-------|
B|-------------3/5--5\3~------------0-------|
G|--------2-------------------------0-------|
D|--------2-------------------------2-------|
A|--------0-------------------------2-------|
E|-0-3-0-------------------3-2-0--0---------|


   P.M .      . . .

E|------------------------------------------|
B|------------------------------------------|
G|--------2---------4p0-2p0-----------------|
D|--------2-----------------2p0-------------|
A|--------0---2-0-2-------------2p0---------|
E|-0-3-0------------------------------------|


            P.M.

E|------0-----------------------------------|
B|------0-----------------------------------|
G|------0--------2----5----7----------------|
D|------2--------2----5----7----------------|
A|------2--------0----3----5----------------|
E|-0--0------0-3----------------------------|


     C5     D5  E5  A5
But here I go again
            E5  A5
Here I go again
            E5  A5
Here I go again
          E5  A5 ( C5  D5 )
Here I go


Solo: G5  D/F#  E5  C5  B


E|-----------------------------------------------------|
B|--------------8/10--8-7-8----------------------------|
G|-4-5-7--------------------5~--------11-12-14b16------|
D|-------5/7~--------------------9/12------------------|
A|-----------------------------------------------------|
E|-----------------------------------------------------|


                  P.M .  .  

E|-----------------------------------------------------|
B|-10h12p10\8-10---------------------------------------|
G|-------------------------11-14-12b14r--12-12~--------|
D|----------------------12-----------------------------|
A|-------------------12--------------------------------|
E|----------------10-----------------------------------|


E|-19p15-17b19~--17b19r17--15-17-----------------------|
B|-------------------------------15~-------------------|
G|-----------------------------------------------------|
D|-----------------------------------------------------|
A|-----------------------------------------------------|
E|-----------------------------------------------------|


E|-----------------------------------------------------|
B|-----------------------------------------------------|
G|-----------------------------------------------------|
D|------------------------------------------12-14-16/17|
A|---------------------10-12-14/15-12-14-15------------|
E|-8-10-12/14-10-12-14---------------------------------|


E|----------------------------15--19~~-----------------|
B|-------------------15-17-19--------------------------|
G|----------14-16-17-----------------------------------|
D|-14-16-17--------------------------------------------|
A|-----------------------------------------------------|
E|-----------------------------------------------------|



Quarta Parte:

A5                        D5
   'Cause I know what it means
    A5
To walk along 
                       D5   ( C5  D5 )
The lonely street of dreams


Refrão:

 G5         C5        D5  ( C5  D5 )
Here I go again on my own
       G5            C5
Going down the only road 
            D5  ( C5  D5 )
I've ever known
         G5           C5
Like a drifter I was born 
          D5  C5  B
To walk alone
A5                      D5  A5
   But I've made up my mind
                    D5  ( C5  D5 )
And wasted no more time

 G5         C5        D5  ( C5  D5 )
Here I go again on my own
       G5            C5
Going down the only road 
            D5  ( C5  D5 )
I've ever known
         G5           C5
Like a drifter I was born 
          D5  C5  B
to walk alone

A5                        D5
   'Cause I know what it means
    A5
To walk along 
                       D5   ( C5  D5 )
The lonely street of dreams
  • 1
  • 2
  • 3
  • 4
  • 5
  • 6
  • 7
  • 8
  • 9
  • 10
  • 11
  • 12
    Acordes para:
      Composición: Bernie Marsden / David CoverdaleColaboración y revision:
      • v.inny
      • Eliakin Wildner

      0 comentarios

        mostrar mas comentarios

        ¿Conseguiste tocar?

        18tocaron1aún no

        ¡Grave un vídeo tocando Here i Go Again y envie para nosotros!

        00:00 / 00:00
        outros vídeos desta música
        repetirqualidadeautomática
        • automática
        Outro vídeos desta música
          00:00 / 00:00
          automática
          • automática
          2 versiones de Contrabajoreproduccionescontribuciones
          1 versión de Bateríareproduccionescontribuciones
          1 versión de Armónicareproduccionescontribuciones
          3 versiones de Guitar Proformatodownloadscontribución
          cerrarplay/pause subir/bajar velocidad
            Acordes para:guitarra
            acordes
            cerrar
            OK