Cifra Club

Is This Love ?

Whitesnake

Cifrado: Principal (guitarra y guitarra eléctrica)
tono: C
 Guitar 1 
|--------|----------|-----------------|-------------|------------------|-------------|
|--------|-----3----|------------3----|-------------|------------3-----|-------------|
|--------|---2---0--|-----0--------0--|-------------|-----0------------|-------------|
|--------|-2--------|---4------4------|-------------|---4------4----4--|-------------|
|--------|----------|-2------3--------|-------------|-2------3---------|-------------|
|--------|----------|-----------------|-------------|------------------|-------------|
| Guitar 2
|--------|----------|-----------------|-------------|------------------|-------------|
|--------|----------|-----------------|-------------|------------------|-------------|
|--------|----------|-----------------|-0-----------|------------------|-------------|
|--------|----------|-----------------|----4--0-----|------------------|-----4--0----|
|--------|----------|-----------------|----------0--|------------------|--0----------|
|--------|----------|-----------------|-------------|------------------|-------------|
| Teclado
|---12---|----------|-----------------|-------------|------------------|-------------|
|---12---|----------|-----------------|-------------|------------------|-------------|
|---11---|----------|-----------------|-------------|------------------|-------------|
|--------|----------|-----------------|-------------|------------------|-------------|
|--------|----------|-----------------|-------------|------------------|-------------|
|--------|----------|-----------------|-------------|------------------|-------------|

 Guitar 1
|-------------------|--3--2---0----------|----------------|------0--------|
|------------3------|--5--3---1---3---0--|--1-------------|---------3-----|
|-----0--------0----|-------------4---0--|-----2----------|-----------0---|
|---4------4-----4--|-----------------3--|-----3----------|---------------|
|-2------3----------|--------------------|------------0-2-|---------------|
|-------------------|--------------------|----------------|--0------------|

 Guitar 1
|-------------------|-----------|-------------------|--------------|
|------------3------|-----------|------------3------|--------------|
|-----0--------0----|-----------|-----0--------0----|--------------|
|---4------4-----4--|-----------|---4------4-----4--|--------------|
|-2------3----------|-----------|-2------3----------|--------------|
|-------------------|-----------|-------------------|--------------|
| Guitar 2
|-------------------|-----------|-------------------|--------------|
|-------------------|-----------|-------------------|--------------|
|-------------------|-----------|-------------------|----0---------|
|-------------------|--4--0-----|-------------------|-------0------|
|-------------------|--------0--|-------------------|-0--------0---|
|-------------------|-----------|-------------------|--------------|

 Guitar 1
|-------------------|--3--2---0----------|----------------|------0--------|
|------------3------|--5--3---1---3---0--|--1-------------|---------3-----|
|-----0--------0----|-------------4---0--|-----2----------|-----------0---|
|---4------4-----4--|-----------------3--|-----3----------|---------------|
|-2------3----------|--------------------|------------0-2-|---------------|
|-------------------|--------------------|----------------|--0------------|

 Guitar 1
|-------------------|-----------|-------------------|--------------|
|------------3------|-----------|------------3------|--------------|
|-----0--------0----|-----------|-----0--------0----|--------------|
|---4------4-----4--|-----------|---4------4-----4--|--------------|
|-2------3----------|-----------|-2------3----------|--------------|
|-------------------|-----------|-------------------|--------------|
| Guitar 2
|-------------------|-----------|-------------------|--------------|
|-------------------|-----------|-------------------|--------------|
|-------------------|-----------|-------------------|----0---------|
|-------------------|--4--0-----|-------------------|-------0------|
|-------------------|--------0--|-------------------|-0--------0---|
|-------------------|-----------|-------------------|--------------|

 Guitar 3
|--12----------12------------------|--14----------14------------------|
|--13----------13------------------|--15----------15------------------|
|--12----------12------------------|--14----------14------------------|
|------10--10------10--10--10--10--|----------------------------------|
|----------------------------------|------15--15------15--15--15--14--|
|----------------------------------|----------------------------------|
                                                                      
|--14----------14------------------|-----------------------------|
|--15----------15------------------|-----------------------------|
|--16----------16------------------|-----------------------------|
|----------------------------------|---------------------------9-|
|------14--14------14--14--14--14--|--15--14----12----10----12---|
|----------------------------------|-----------------------------|

|--12----------12------------------|--14----------14------------------|
|--13----------13------------------|--15----------15------------------|
|--12----------12------------------|--14----------14------------------|
|------10--10------10--10--10--10--|----------------------------------|
|----------------------------------|------15--15------15--15--15--14--|
|----------------------------------|----------------------------------|
                                                                      
|--14----------14------------------|----------------------------|-----------|
|--15----------15------------------|----------------------------|-----------|
|--16----------16------------------|----------------------------|-----------|
|----------------------------------|----------------------------|-----------|
|------14--14------14--14--14--14--|--15--14----12----10----8---|---8---8---|
|----------------------------------|----------------------------|-----------|

 Guitar 1
|----------|-----------------|-------------|------------------|-----------|
|-----3----|------------3----|-------------|------------3-----|-----------|
|---2---0--|-----0--------0--|-------------|-----0------------|-----------|
|-2--------|---4------4------|-------------|---4------4----4--|-----------|
|----------|-2------3--------|-------------|-2------3---------|-----------|
|----------|-----------------|-------------|------------------|-----------|
| Guitar 1
|----------|-----------------|-------------|------------------|-----------|
|----------|-----------------|-------------|------------------|-----------|
|----------|-----------------|-0-----------|------------------|-----------|
|----------|-----------------|----4--0-----|------------------|---4--0----|
|----------|-----------------|----------0--|------------------|-----------|
|----------|-----------------|-------------|------------------|-----------|

|-------------------|-----------|-------------------|-------------|
|------------3------|-----------|------------3------|-------------|
|-----0--------0----|-----------|-----0--------0----|-------------|
|---4------4-----4--|-----------|---4------4-----4--|-------------|
|-2------3----------|-----------|-2------3----------|-------------|
|-------------------|-----------|-------------------|-------------|
|
|-------------------|-----------|-------------------|-------------|
|-------------------|-----------|-------------------|-------------|
|-------------------|-----------|-------------------|-------------|
|-------------------|-------2---|-------------------|-----4---0---|
|-------------------|---2-------|-------------------|-0-----------|
|-------------------|-----------|-------------------|-------------|

 Guitar 1
|-------------------|--3--2---0----------|----------------|------------|
|------------3------|--5--3---1---3---0--|--1--1-------0--|--1--1------|
|-----0--------0----|-------------4---0--|-----2-------0--|-----2------|
|---4------4-----4--|-----------------3--|-----3-------3--|-----3------|
|-2------3----------|--------------------|----------------|------------|
|-------------------|--------------------|----------------|------------|

 Guitar 3
|--12----------12------------------|--14----------14------------------|
|--13----------13------------------|--15----------15------------------|
|--12----------12------------------|--14----------14------------------|
|------10--10------10--10--10--10--|----------------------------------|
|----------------------------------|------15--15------15--15--15--14--|
|----------------------------------|----------------------------------|
                                                                      
|--14----------14------------------|-----------------------------|
|--15----------15------------------|-----------------------------|
|--16----------16------------------|-----------------------------|
|----------------------------------|---------------------------9-|
|------14--14------14--14--14--14--|--15--14----12----10----12---|
|----------------------------------|-----------------------------|

|--12----------12------------------|--14----------14------------------|
|--13----------13------------------|--15----------15------------------|
|--12----------12------------------|--14----------14------------------|
|------10--10------10--10--10--10--|----------------------------------|
|----------------------------------|------15--15------15--15--15--14--|
|----------------------------------|----------------------------------|
                                                                      
|--14----------14------------------|----------------------------|-----------|
|--15----------15------------------|----------------------------|-----------|
|--16----------16------------------|----------------------------|-----------|
|----------------------------------|----------------------------|-----------|
|------14--14------14--14--14--14--|--15--14----12----10----8---|---8---8---|
|----------------------------------|----------------------------|-----------|

Solo

 Guitar 4
|--3--3----|------3--|--2--2--2--2--|--2--2--2-3-2-------------|----2-3-5-7---12---12-----|
|----------|---------|--------------|---------------3--------0-|--3-------------------10--|
|----------|---------|--------------|----------------------2---|--------------------------|
|----------|---------|--------------|------------------2-4-----|--------------------------|
|----------|---------|--------------|--------------------------|--------------------------|
|----------|---------|--------------|--------------------------|--------------------------|

|--10---10-10-|--10-10-7-10-14-14-12-10------------------|--7-12----14----15-15-|---14-15--|
|-------------|-------------------------10-8-10---8-8----|-------12----12-------|----------|
|-------------|---------------------------------9-----9--|----------------------|----------|
|-------------|------------------------------------------|----------------------|----------|
|-------------|------------------------------------------|----------------------|----------|
|-------------|------------------------------------------|----------------------|----------|
 
|--------14--15---|-17--17--17-15-|-17-------20-|-20-20-19-19-19-----------------------------|
|---17------------|---------------|----15-15----|----------------20-------17-19-19--19-17-17-|
|-16--16---16--16-|---------------|-------------|-------------------19-19--------------------|
|-----------------|---------------|-------------|--------------------------------------------|
|-----------------|---------------|-------------|--------------------------------------------|
|-----------------|---------------|-------------|--------------------------------------------|
                                                      
|---12---17-20-19-17-15-15-15-15-12-10-12-10-8-7-5-3-5-7-|-15-14--------14--14--|--15---12---|
|--------------------------------------------------------|-17-15---17-----------|--13---13---|
|--------------------------------------------------------|---------17---16--16--|------------|
|-14--12-------------------------------------------------|----------------------|------------|
|--------------------------------------------------------|----------------------|------------|
|--------------------------------------------------------|----------------------|------------|

 Guitar 3
|--12----------12------------------|--14----------14------------------|
|--13----------13------------------|--15----------15------------------|
|--12----------12------------------|--14----------14------------------|
|------10--10------10--10--10--10--|----------------------------------|
|----------------------------------|------15--15------15--15--15--14--|
|----------------------------------|----------------------------------|
                                                                      
|--14----------14------------------|-----------------------------|
|--15----------15------------------|-----------------------------|
|--16----------16------------------|-----------------------------|
|----------------------------------|---------------------------9-|
|------14--14------14--14--14--14--|--15--14----12----10----12---|
|----------------------------------|-----------------------------|

|--12----------12------------------|--14----------14------------------|
|--13----------13------------------|--15----------15------------------|
|--12----------12------------------|--14----------14------------------|
|------10--10------10--10--10--10--|----------------------------------|
|----------------------------------|------15--15------15--15--15--14--|
|----------------------------------|----------------------------------|
                                                                      
|--14----------14------------------|-----------------------------|
|--15----------15------------------|-----------------------------|
|--16----------16------------------|-----------------------------|
|----------------------------------|---------------------------9-|
|------14--14------14--14--14--14--|--15--14----12----10----12---|
|----------------------------------|-----------------------------|

|--12----------12------------------|--14----------14------------------|
|--13----------13------------------|--15----------15------------------|
|--12----------12------------------|--14----------14------------------|
|------10--10------10--10--10--10--|----------------------------------|
|----------------------------------|------15--15------15--15--15--14--|
|----------------------------------|----------------------------------|
                                                                      
|--14----------14------------------|-----------------------------|
|--15----------15------------------|-----------------------------|
|--16----------16------------------|-----------------------------|
|----------------------------------|---------------------------9-|
|------14--14------14--14--14--14--|--15--14----12----10----12---|
|----------------------------------|-----------------------------|

|--12----------12------------------|--14----------14------------------|
|--13----------13------------------|--15----------15------------------|
|--12----------12------------------|--14----------14------------------|
|------10--10------10--10--10--10--|----------------------------------|
|----------------------------------|------15--15------15--15--15--14--|
|----------------------------------|----------------------------------|
                                                                      
|--14----------14------------------|-----------------------------|
|--15----------15------------------|-----------------------------|
|--16----------16------------------|-----------------------------|
|----------------------------------|---------------------------9-|
|------14--14------14--14--14--14--|--15--14----12----10----12---|
|----------------------------------|-----------------------------|

|--12----------12------------------|--14----------14------------------|
|--13----------13------------------|--15----------15------------------|
|--12----------12------------------|--14----------14------------------|
|------10--10------10--10--10--10--|----------------------------------|
|----------------------------------|------15--15------15--15--15--14--|
|----------------------------------|----------------------------------|
                                                                      
|--14----------14------------------|-----------------------------|
|--15----------15------------------|-----------------------------|
|--16----------16------------------|-----------------------------|
|----------------------------------|---------------------------9-|
|------14--14------14--14--14--14--|--15--14----12----10----12---|
|----------------------------------|-----------------------------|

|--12----------12------------------|--14----------14------------------|
|--13----------13------------------|--15----------15------------------|
|--12----------12------------------|--14----------14------------------|
|------10--10------10--10--10--10--|----------------------------------|
|----------------------------------|------15--15------15--15--15--14--|
|----------------------------------|----------------------------------|
                                                                      
|--14----------14------------------|-----------------------------|----12----|
|--15----------15------------------|-----------------------------|----13----|
|--16----------16------------------|-----------------------------|----12----|
|----------------------------------|---------------------------9-|----------|
|------14--14------14--14--14--14--|--15--14----12----10----12---|----------|
|----------------------------------|-----------------------------|----------|

Guitar 1 - Clean Guitar
Guitar 2 - Armonic Guitar
Guitar 3 - Overdriven Guitar
Guitar 4 - Distortion Guitar
Composición de David Coverdale / John Sykes
757 vistas
    • ½ Tono
    • A
    • Bb
    • B
    • C
    • Db
    • D
    • Eb
    • E
    • F
    • F#
    • G
    • Ab
  • Agregar a la lista

    0 comentarios

    Ver todos los comentarios

    ¿Lograste tocar?

    1 Tocaron 1 Aún no

    ¡Graba un video tocando Is This Love ? y envíanoslo!

    00:00 / 00:00
    Outros vídeos desta música
    Repetir Calidad Automático
    Outros vídeos desta música
    00:00 / 00:00
    Automático
    OK