Cifra Club

Love Ain't no Stranger

Whitesnake

Cifrado: Principal (guitarra y guitarra eléctrica)
tono: D
Introdução: 


Primeira Estrofe:

   D6/F# G9       A     B9
E|------------------------------------------|
B|--------------3----------------2----------|
G|-----2------2-------2--------2------------|
D|---0------0-------2------2h4--------------|
A|----------------0-----2-------------------|
E|-2-----3----------------------------------|


Who knows 

Where the cold wind blows

I ask my friends

But nobody knows

Who am I to believe in love
                       D6/F#  G9  A  B9
Oh love ain't no stranger

D6/F#  G9  A  B9


Segunda Estrofe:

D6/F#          G9
      I looked around 
      A         B9
And what did I see
D6/F#         G9
      Broken hearted 
         A         G9
People staring at me
D6/F#      G9
      All searching 
            A      B9
'Cos they still believe
Em    A9
   Oh    love ain't no stranger

( B5  A5  B5  ) (3x)

A5  E5


Terceira Estrofe:

            ( B5  A5  B5 )
I was alone 
                  ( B5  A5  B5 )
An' I needed love
           E5        D5
So much I sacrificed all 
                  ( B5  A5  B5 )
I was dreaming of
                   ( B5  A5  B5 )
I heard no warning
                     ( B5  A5  B5 )
But a heart can tell
             E5            D5
I'd feel the emptiness of love 
               ( B5  A5  B5 )
I know so well


Refrão:

G5  D5  A5
           Love ain't no stranger
G5  D5  A5
        I ain't no stranger
G5  D5  A5
           Love ain't no stranger
G5  D5  A5
        I ain't no stranger to love 

( B5  A5  B5 )            ( B5  A5  B5 )
               No, no, no

( B5  A5  B5 )

A5  E5


Quarta Estrofe:

                       ( B5  A5  B5 )
Can't hold the passion 
                  ( B5  A5  B5 )
Of a soul in need
            E5            D5
I look for mercy when my heart
                ( B5  A5  B5 )
Begins to bleed
                  ( B5  A5  B5 )
I know good loving 
                         ( B5  A5  B5 )
An' I'm a friend of pain
             E5               D5
But, when I read between the lines 
                  ( B5  A5  B5 )
It's all the same


Refrão:

G5  D5  A5
           Love ain't no stranger
G5  D5  A5
        I ain't no stranger
G5  D5  A5
           Love ain't no stranger
G5  D5  A5
        I ain't no stranger to love 


Solo: D6/F#  G9  A  B9 (7x)
      G9  A9  B9

E|----------------------------------------------------|
B|----------------------------------------------------|
G|-2b4~~----------------------4/6--7p6\4--------------|
D|----------------------------------------7/9--9~-----|
A|----------------------------------------------------|
E|----------------------------------------------------|

E|---------9~-----------------------------------------|
B|----------------------------------------------------|
G|-9b11---------9--7--9~---7p6------------------------|
D|-----------------------------7-9-7------------------|
A|-----------------------------------9p7-5-7-5p4\-2~--|
E|----------------------------------------------------|

E|----------------------------------------------------|
B|-----------------------------------------10-12------|
G|----------------------7-9-7-9-11-9-11-12------------|
D|---------4-5-7~---7-9-------------------------------|
A|---4-5/7--------------------------------------------|
E|-7--------------------------------------------------|

E|-----------------12b14-12~---10h12-10h12------------|
B|-12b15r----10-12-------------------------12~--------|
G|----------------------------------------------------|
D|----------------------------------------------------|
A|----------------------------------------------------|
E|----------------------------------------------------|

E|-----10-12-12b14~---12b14-12-10-9~~-----------------|
B|-/12------------------------------------------------|
G|----------------------------------------------------|
D|----------------------------------------------------|
A|----------------------------------------------------|
E|----------------------------------------------------|

E|-19b21-19-17----17----------------------------------|
B|-------------19----19b22----------------------------|
G|----------------------------------------------------|
D|----------------------------------------------------|
A|----------------------------------------------------|
E|----------------------------------------------------|


Quinta Estrofe:

D6/F#          G9
      So who knows 
           A          B9
Where the cold wind blows
D6/F#        G9
      I ask my friends
     A       B9
But nobody knows
D6/F#        G9
      Who am I 
      A        B9
To believe in love
Em             A9
   Lord, have mercy
                       
Love ain't no stranger

( B5  A5  B5 ) (3x)

A5  E5

I ain't no stranger

( B5  A5  B5 ) (3x)

A5  ( E5  D5  E5 )


Sexta Estrofe:

            ( B5  A5  B5 )
I was alone 
                  ( B5  A5  B5 )
An' I needed love
           E5        D5
So much I sacrificed all 
                  ( B5  A5  B5 )
I was dreaming of
                       ( B5  A5  B5 )
Can't hold the passion 
                  ( B5  A5  B5 )
Of a soul in need
            E5
I look for mercy 
         D5
When my heart begins to bleed

( B5  A5  B5 )


Refrão:

G5  D5  A5
           Love ain't no stranger
G5  D5  A5
        I ain't no stranger
G5  D5  A5
           Love ain't no stranger
G5  D5  A5
        I ain't no stranger to love 


Final: D6/F#  G5  A  B9
Composición de David Coverdale / Mel Galley
Colaboración y revisión:
  • Vinícius Dias
  • Ricardo Riechelmann
  • Emerson Andrienco
1.122 vistas
  • Simplificar cifrado
    • ½ Tono
    • A
    • Bb
    • B
    • C
    • Db
    • D
    • Eb
    • E
    • F
    • F#
    • G
    • Ab
  • Agregar a la lista

    0 comentarios

    Ver todos los comentarios

    ¿Lograste tocar?

    15 Tocaron 1 Aún no

    ¡Graba un video tocando Love Ain't no Stranger y envíanoslo!

    00:00 / 00:00
    Outros vídeos desta música
    Repetir Calidad Automático
    Outros vídeos desta música
    00:00 / 00:00
    Automático
    Capítulos
    • Tocando a Música
    • Dicas Iniciais / Equipamentos
    • Configurações do Amplificador
    • Acordes do Violão na Primeira e Segunda Estrofe
    • Tocando Intro, Primeira e Segunda Partes
    • Ensinando Arpejo do Violão
    • Acordes da Guitarra na Segunda e Terceira Estrofes
    • Tocando Segunda e Terceira Estrofe
    • Ensinando Ritmo da Segunda e Terceira Estrofes
    • Acordes do Refrão
    • Tocando o Refrão
    • Ensinando o Ritmo do Refrão
    • Tocando o Solo
    • Solo - Parte 1 de 5
    • Solo - Parte 2 de 5
    • Solo - Parte 3 de 5
    • Solo - Parte 4 de 5
    • Solo - Parte 5 de 5
    • Solo todo mais lento
    • Ensinando Base do Solo
    • Tocando Quinta e Sexta Estrofes e Final
    • Ensinando Final
    • Encerramento
    • Ficha Técnica / Erros de Gravação
    OK