Cifra Club

Aprenda

Over Now

Whitesnake

Tablatura: Principal (guitarra)
tono: C
  Tune strings to:
1- E   2- B   3- G   4- D   5- G   6- D

Main Rythm:
e-|------------3---------------3-3--|
b-|------------3---------------3-3--|
g-|-0-2-2-2-0--0---0-2-2-2-0---0-0--|
d-|-0-2-2-2-0--0---0-2-2-2-0---0-0--|
g-|-0-2-2-2-0------0-2-2-2-0--------|
D-|---------------------------------|

Vocals part:
                   Distorted Guitar
e-|--------------------------------------------------|
b-|------5---------------------------5---------------|
g-|------5---------------------------5----2-3-2-3-2--|
d-|------5---------------------------5----2-3-2-3-2--|
g-|-5/7--5----------------------5/7--5----2-3-2-3-2--|
d-|--------------------------------------------------|

         Acoustic Guitar under Distorted Guitar
e-|-8-8-8-2--3----8-8-8-2-------8-8-8-2--3----8-8-8-2--|
b-|-8-8-8-3--3----8-8-8-3-------8-8-8-3--3----8-8-8-3--|
g-|-7-7-7-2--0----7-7-7-2-------7-7-7-2--0----7-7-2-2--|
g-|----------------------------------------------------|
d-|----------------------------------------------------|

After main riff
e-|-------------------3--------------3-3--|
b-|-------------------3--------------3-3--|
g-|-4--5--7-----0--2--0---0-2-2-2-0--0-0--|
d-|-4--5--7--4--0--2--0---0-2-2-2-0--0-0--|
g-|-4--5--7--4--0--2------0-2-2-2-0-------|
d-|----------4----------------------------|

Near the end of the song, this is somtimes modified into
the following form:
e-|-------------------3--------------3-3--|
b-|-------------------3--------------3-3--|
g-|-4--5--7-----4--2--0---0-2-2-2-0--0-0--|
d-|-4--5--7--4--4--2--0---0-2-2-2-0--0-0--|
g-|-4--5--7--4--4--2------0-2-2-2-0-------|
d-|----------4----------------------------|


Bridge:
e-|------------------------------------|
b-|------------------------------------|
g-|-9-9/10-10-10-10-9-/5-5-3-5-0-3/7-5-|
d-|-9-9/10-10-10-10-9-/5-5-3-5-0-3/7-5-|
g-|-9-9/10-10-10-10-9-/5-5-3-5-0-3/7-5-|
d-|------------------------------------|

e-|-----------------------------------------|-------------|
b-|-----------------------------------------|-------------|
g-|-9-9/10-10-10-10-9/5-5-5-3-5-0-3-0-5-3-0-|-0-3-0-5-3-0-|
d-|-9-9/10-10-10-10-9/5-5-5-3-5-0-3-0-5-3-0-|-0-3-0-5-3-0-|
g-|-9-9/10-10-10-10-9/5-5-5-3-5-0-3-0-5-3-0-|-0-3-0-5-3-0-|
d-|-----------------------------------------|-------------|

e-|-----------------------------------|
b-|-----------------------------------|
g-|-9/10-10-10-10-9-/5-5-3-5-0-3/7-5--|
d-|-9/10-10-10-10-9-/5-5-3-5-0-3/7-5--|
g-|-9/10-10-10-10-9-/5-5-3-5-0-3/7-5--|
d-|-----------------------------------|

e-|-----------------------------------------|-------------|--------3--|
b-|-----------------------------------------|-------------|--------3--|
g-|-9-9/10-10-10-10-9/5-5-5-3-5-0-3-0-5-3-0-|-0-3-0-5-3-0-|---2----0--|
d-|-9-9/10-10-10-10-9/5-5-5-3-5-0-3-0-5-3-0-|-0-3-0-5-3-0-|---2----0--|
g-|-9-9/10-10-10-10-9/5-5-5-3-5-0-3-0-5-3-0-|-0-3-0-5-3-0-|---2----0--|
d-|-----------------------------------------|-------------|-----------|

And return to the main riff.
37 reproducciones
    • ½ Tono
    • A
    • Bb
    • B
    • C
    • Db
    • D
    • Eb
    • E
    • F
    • F#
    • G
    • Ab
  • Adicionar à lista

    0 comentarios

    Ver todos os comentários

    ¿Conseguiste tocar?

    0 Tocaram 0 Ainda não

    Grave um vídeo tocando Over Now e nos envie!

    00:00 / 00:00
    outros vídeos desta música
    repetir qualidade Automático
    Outros vídeos desta música
    00:00 / 00:00
    Automático
    OK