Cifra Club

Restless Heart

Whitesnake

Cifrado: Principal (guitarra y guitarra eléctrica)
Selo Cifra Club: esta cifra foi revisada para atender aos critérios oficiais da nossa Equipe de Qualidade.
tono: B
Riff A plays first 8 bars on own then over Riff B for 4 bars
E|----------------|--------------|--------------|------------------|
B|----------------|--------------|--------------|------------------|
G|----4--6--4--6--|--4--6--4--6--|--6--7--6--7--|--9--11-9--11-----| x2
D|----4--4--4--4--|--7--7--7--7--|--7--7--7--7--|--9--9--9--9------|
A|----------------|--------------|--------------|------------------|
E|----------------|--------------|--------------|------------------|

Riff B
E|---------------------|--2----------------|------------------|--2---------------|
B|---------------------|--3----------------|------------------|--3---------------|
G|---------\6---4---2--|--2----\6---4---2--|------\6---4---2--|--2----\6---4---2-|
D|----4----------------|--0----------------|--4---------------|--0---------------|
A|----4----------------|-------------------|--4---------------|------------------|
E|----2----------------|-------------------|--2---------------|------------------|

                             let ring                               let ring
E|----------------------------0--------|------------------------------0------|
B|------------------------------4------|--------------------------------4----|
G|--------------------------------4-2--|----------------------------------4--|
D|----4--4--4--4----4--4--4------------|----4--4--4--4----4--4--4------------|
A|----4--4--4--4----4--4--4------------|----4--4--4--4----4--4--4------------|
E|----0--2--2--2----0--2--2------------|----0--2--2--2----0--2--2------------|


[Verse 1]
     There are times in my life..           I don't know which....
E|-------------------------------------|-------------------------------------|
B|-------------------------------------|-------------------------------------|
G|----2---2-----4----------------------|-----7---7---------------------------|
D|----2---2-----4----------------------|-----7---7------2--------------------|
A|----0---0-----2----------------------|-----5---5------2--------------------|
E|-------------------------------------|----------------0--------------------|

     Where everything I touch..             I get my fingers...
E|-------------------------------------|------------------------0~~~~--------|
B|-------------------------------------|------------------------0~~~~--------|
G|----2---2-----4----------------------|-----7---7--------------4~~~~--------|
D|----2---2-----4----------------------|-----7---7------2--------------------|
A|----0---0-----2----------------------|-----5---5------2--------------------|
E|-------------------------------------|----------------0--------------------|

         Dreams to ashes                      Ashes to dust
E|-------------------------------------|-------------------------------------|
B|-------------------------------------|-------------------------------------|
G|----2---2-----4----------------------|-----7---7---------------------------|
D|----2---2-----4----------------------|-----7---7------2--------------------|
A|----0---0-----2----------------------|-----5---5------2--------------------|
E|-------------------------------------|----------------0--------------------|

          When all that glitters           Is dull with rust
E|-------------------------------------|---------2------0--------------------|
B|-------------------------------------|---2-----3------0--------------------|
G|----2---2-----4----------------------|---4-----2------1--------------------|
D|----2---2-----4----------------------|---4-----0------2--------------------|
A|----0---0-----2----------------------|---2------------2--------------------|
E|-------------------------------------|---2------------0--------------------|


[Chorus] Play Riff A over these 4 bars of Chorus
      Restless heart      restless mind ...
E|------------------|--2------------|---------------|--2---------------------|
B|------------------|--3------------|---------------|--3---------------------|
G|------------------|--2------------|---------------|--2---------------------|
D|----4-------------|--0------------|--4------------|--0---------------------|
A|----4---\4---2--0-|-----\4---2--0-|--4--\4---2--0-|-----\4---2--0----------|
E|----2-------------|---------------|--2------------|------------------------|

                              let ring                               let ring
E|------------------------------0-------|------------------------------0-----|
B|--------------------------------4-----|--------------------------------4---|
G|----------------------------------4-2-|----------------------------------4-|
D|----4---4--4--4-----4---4--4----------|---4---4--4--4-----4---4--4---------|
A|----4---4--4--4-----4---4--4----------|---4---4--4--4-----4---4--4---------|
E|----0---2--2--2-----0---2--2----------|---0---2--2--2-----0---2--2---------|


[Verse 2]

E|-------------------------------------|-------------------------------------|
B|-------------------------------------|-------------------------------------|
G|----2---2-----4----------------------|-----7---7---------------------------|
D|----2---2-----4----------------------|-----7---7------2--------------------|
A|----0---0-----2----------------------|-----5---5------2--------------------|
E|-------------------------------------|----------------0--------------------|

E|-------------------------------------|------------------------0~~~~--------|
B|-------------------------------------|------------------------0~~~~--------|
G|----2---2-----4----------------------|-----7---7--------------4~~~~--------|
D|----2---2-----4----------------------|-----7---7------2--------------------|
A|----0---0-----2----------------------|-----5---5------2--------------------|
E|-------------------------------------|----------------0--------------------|

E|-------------------------------------|-------------------------------------|
B|-------------------------------------|-------------------------------------|
G|----2---2-----4----------------------|-----7---7---------------------------|
D|----2---2-----4----------------------|-----7---7------2--------------------|
A|----0---0-----2----------------------|-----5---5------2--------------------|
E|-------------------------------------|----------------0--------------------|

E|-------------------------------------|---------2------0--------------------|
B|-------------------------------------|---2-----3------0--------------------|
G|----2---2-----4----------------------|---4-----2------1--------------------|
D|----2---2-----4----------------------|---4-----0------2--------------------|
A|----0---0-----2----------------------|---2------------2--------------------|
E|-------------------------------------|---2------------0--------------------|


[Chorus] Play Riff A over these 4 bars of Chorus
      Restless heart      restless mind ...
E|------------------|--2------------|---------------|--2---------------------|
B|------------------|--3------------|---------------|--3---------------------|
G|------------------|--2------------|---------------|--2---------------------|
D|----4-------------|--0------------|--4------------|--0---------------------|
A|----4---\4---2--0-|-----\4---2--0-|--4--\4---2--0-|-----\4---2--0----------|
E|----2-------------|---------------|--2------------|------------------------|

                              let ring                               let ring
E|------------------------------0-------|------------------------------0-----|
B|------------ph-----------ph-----4-----|-----------ph-----------ph------4---|
G|----------------------------------4-2-|----------------------------------4-|
D|----4---4--4--4-----4---4--4----------|---4---4--4--4-----4---4--4---------|
A|----4---4--4--4-----4---4--4----------|---4---4--4--4-----4---4--4---------|
E|----0---2--2--2-----0---2--2----------|---0---2--2--2-----0---2--2---------|


[Bridge]

E|-----------------------------------|----------------------------------------|
B|-----------------------------------|-----------------------------------ph---|
G|-------------------------------ph--|------------------------------------2~~~|
D|--------------------------------2~~|----------------------------------------|
A|----\9-8-7----------1------2s4-----|-----\9-8-7------------1-------2s4------|
E|------------8-7-------2p0----------|-------------8-7----------2p0-----------|

E|-----------------------------------|----------------------------------------|
B|-----------------------------------|-----------------------------------ph---|
G|-------------------------------ph--|------------------------------------2~~~|
D|--------------------------------2~~|----------------------------------------|
A|-----\9-8-7---------1------2s4-----|----\9-8-7------------1--------2s4------|
E|-------------8-7------2p0----------|------------8-7----------2p0------------|


[Solo] with/phaser effect

E|--------------------------------------------------------------------------------------------|
B|-x-x-x-----------------------------9-------12-12--------------------------------------------|
G|-x-x-x-----------------------------9-------------9------------------------------------------|
D|-x-x-x---------ph-------------\11-------11----------11~~~~--------9-------------------------|
A|-x-x-x---------4(6)4-2-4--------------------------------------------11-10-9-7---7s9-7~~~----|
E|------------------------------------------------------------------------------9-------------|

E|--------------12b(14)12-9h12p9---12b(14)12--12(14)12-9-12(12)-|-9-------11------12------14------16---------|
B|--12b(14)12-9------------------9----------9-------------------|-12b(14)-14b(16)-15b(17)-17b(19)-19b(21)~~~~|
G|--------------------------------------------------------------|--------------------------------------------|
D|--------------------------------------------------------------|--------------------------------------------|
A|--------------------------------------------------------------|--------------------------------------------|
E|--------------------------------------------------------------|--------------------------------------------|

E|---17b(19)17-16----------------------------------|---------------------------------------------------------|
B|----------------17-16-14s12-14-12s9~~~~~~~~~~~---|----------------------12b(14)12--------------------------|
G|----------------------------------11b(13)~~~~~---|-------9h11-13-11--------------11b(13)11~~~~~~~----------|
D|-------------------------------------------------|-------------------13------------------------------------|
A|-------------------------------------------------|---------------------------------------------------------|
E|-------------------------------------------------|---------------------------------------------------------|
 

[Outro Lead]

E|------------------------------------------|-----------------------------------------|
B|----17--------17--------------------------|---17---------------------17(19)~~~~~~---|
G|----16b(18)16-16b(18)-14------------------|---16b(18)16-16b(18)16-14----------------|
D|-------------------------16~~~~~~~--------|-----------------------------------------|
A|------------------------------------------|-----------------------------------------|
E|------------------------------------------|-----------------------------------------|

E|---14------14------14---------------------|------19b(21)-17-19b(21)~~~~~~~~~~~~-----|
B|---17b(19)-17b(19)-17b(19)-14-17(19)~~~~~-|-----------------------------------------|
G|------------------------------------------|-----------------------------------------|
D|------------------------------------------|-----------------------------------------|
A|------------------------------------------|-----------------------------------------|
E|------------------------------------------|-----------------------------------------|


Intro
Verse 1
Chorus
Verse 2
Chorus
Bridge
Solo
Chorus with Outro lead


*************************

| h   Hammer-on
| p   Pull-off
| r   Release
| t   Tapping
| b   Bend
| pb  Pre-bend
| pbr Pre-bend release
| /   Slide up
| \   Slide down
| ~   Vibrato
| x   Muting string
*************************
00:00 / 00:00
Otros videos de esta canción
Repetir
Otros videos de esta canción
36 exhibiciones
    • ½ Tono
    • A
    • Bb
    • B
    • C
    • Db
    • D
    • Eb
    • E
    • F
    • F#
    • G
    • Ab
  • Agregar a la lista

Afinación de cifrado

Afinador online

    00:00 / 00:00
    OK